Nightwish

Nightwish - Pharaoh Sails To Orion bass tab

G||------------------|------------------|------------------|------------------|

D||------------------|------------------|------------------|------------------|

A||------------------|------------------|------------------|------------------|

E||------------------|------------------|------------------|------------------|

------------------|------------------|------------------|------------------|

------------------|------------------|------------------|------------------|

------------------|------------------|------------------|------------------|

------------------|------------------|------------------|------------------|

------------------------|--------------------------|------------------------|

--0-0------0-0----------|--0-0------0-0------------|--0-0------0-0----------|

------------------------|--------------------3-----|------------------------|

------------------------|--------------------------|------------------------|

--------------------------|------------------|------------------|

--0-0------0-0------------|------------------|------------------|

--------------------3-----|------------------|------------------|

--------------------------|------------------|------------------|

------------------|------------------|

------------------|------------------|

------------------|------------------|

------------------|------------------|

--------------------------------------------------|

--0--0--0--0--0--0--0--0--0--0--0--0--0--0--0--0--|

--------------------------------------------------|

--------------------------------------------------|

--------------------------------------------------|

--0--0--0--0--0--0--0--0--0--0--0--0--0--0--0--0--|

--------------------------------------------------|

--------------------------------------------------|

--------------------------------------------------|

--------------------------------------------------|

--------------------------------------------------|

--4--4--4--4--4--4--4--4--4--4--4--4--4--4--4--4--|

--------------------------------------------------|-------------------|

--------------------------------------------------|-------------------|

--------------------------------------------------|--0----------------|

--4--4--4--4--4--4--4--4--4--4--4--4--4--4--4--4--|-------------------|

-------------------|--------------------------------------------------|

-------------------|--0--0--0--0--0--0--0--0--0--0--0--0--0--0--0--0--|

-------------------|--------------------------------------------------|

--3----------------|--------------------------------------------------|

--------------------------------------------|

--0--0--0--0--0--0--0--0--0--0--0--0--------|

--------------------------------------1--3--|

--------------------------------------------|

--------------------------------------------------|

--0--0--0--0--0--0--0--0--0--0--0--0--0--0--0--0--|

--------------------------------------------------|

--------------------------------------------------|

--------------------------------------------------|

--0--0--0--0--0--0--0--0--0--0--0--0--0--0--0--0--|

--------------------------------------------------|

--------------------------------------------------|

--------------------------------------------------|

--------------------------------------------------|

--------------------------------------------------|

--4--4--4--4--4--4--4--4--4--4--4--4--4--4--4--4--|

--------------------------------------------------|-------------------|

--------------------------------------------------|-------------------|

--------------------------------------------------|--0----------------|

--4--4--4--4--4--4--4--4--4--4--4--4--4--4--4--4--|-------------------|

-------------------|--------------------------------------------------|

-------------------|--0--0--0--0--0--0--0--0--0--0--0--0--0--0--0--0--|

-------------------|--------------------------------------------------|

--3----------------|--------------------------------------------------|

--------------------------------------------|------------------|

--0--0--0--0--0--0--0--0--0--0--0--0--------|------------------|

--------------------------------------1--3--|------------------|

--------------------------------------------|------------------|

------------------|------------------|------------------|

------------------|------------------|------------------|

------------------|------------------|------------------|

------------------|------------------|------------------|

--------------------------|-----------------------|--------------------------|

--0-----0--1--0-----------|--0--1--------0--------|--0-----0--1--0-----0--1--|

--------------------3-----|--------3--------------|--------------------------|

--------------------------|-----------------------|--------------------------|

------------------------|-----------------------|----------------------|

--4-----------0---------|-----------------------|----------------------|

--------3---------------|--2--3--2-----0--------|----0--2-----3--------|

------------------------|-----------------------|----------------------|

--------------------------|-----------------------|--------------------------|

--------------------0-----|--0--------------------|--0--1--0-----------0--1--|

--2--3--2-----0-----------|--------3-----2--------|--------------3-----------|

--------------------------|-----------------------|--------------------------|

-----------------------|-------------------------|----------------------|

--------0--------0-----|--0--1--0-----------3----|-------1-----0--------|

--3--------------------|--------------3----------|----------------------|

-----------------------|-------------------------|----------------------|

-----------------------|----------------------|--------------------------|

-----------------------|----------------------|--------------------0-----|

--2--3--2-----0--------|----0--2-----3--------|--2--3--2-----0-----------|

-----------------------|----------------------|--------------------------|

-----------------------|--------------------------------------------------|

--0--------------------|--0--0--0--0--0--0--0--0--0--0--0--0--0--0--0--0--|

--------3-----2--------|--------------------------------------------------|

-----------------------|--------------------------------------------------|

--------------------------------------------------|

--0--0--0--0--0--0--0--0--0--0--0--0--0--0--0--0--|

--------------------------------------------------|

--------------------------------------------------|

--------------------------------------------------|

--------------------------------------------------|

--------------------------------------------------|

--4--4--4--4--4--4--4--4--4--4--4--4--4--4--4--4--|

--------------------------------------------------|-------------------|

--------------------------------------------------|-------------------|

--------------------------------------------------|--0----------------|

--4--4--4--4--4--4--4--4--4--4--4--4--4--4--4--4--|-------------------|

-------------------|--------------------------------------------------|

-------------------|--0--0--0--0--0--0--0--0--0--0--0--0--0--0--0--0--|

-------------------|--------------------------------------------------|

--3----------------|--------------------------------------------------|

--------------------------------------------|

--0--0--0--0--0--0--0--0--0--0--0--0--------|

--------------------------------------1--3--|

--------------------------------------------|

--------------------------------------------------|

--0--0--0--0--0--0--0--0--0--0--0--0--0--0--0--0--|

--------------------------------------------------|

--------------------------------------------------|

--------------------------------------------------|

--0--0--0--0--0--0--0--0--0--0--0--0--0--0--0--0--|

--------------------------------------------------|

--------------------------------------------------|

--------------------------------------------------|

--------------------------------------------------|

--------------------------------------------------|

--4--4--4--4--4--4--4--4--4--4--4--4--4--4--4--4--|

--------------------------------------------------|-------------------|

--------------------------------------------------|-------------------|

--------------------------------------------------|--0----------------|

--4--4--4--4--4--4--4--4--4--4--4--4--4--4--4--4--|-------------------|

-------------------|--------------------------------------------------|

-------------------|--0--0--0--0--0--0--0--0--0--0--0--0--0--0--0--0--|

-------------------|--------------------------------------------------|

--3----------------|--------------------------------------------------|

--------------------------------------------|--------------------------|

--0--0--0--0--0--0--0--0--0--0--0--0--------|--0-----0--1--0-----------|

--------------------------------------1--3--|--------------------3-----|

--------------------------------------------|--------------------------|

-----------------------|--------------------------|------------------------|

--0--1--------0--------|--0-----0--1--0-----0--1--|--4-----------0---------|

--------3--------------|--------------------------|--------3---------------|

-----------------------|--------------------------|------------------------|

-----------------------|----------------------|--------------------------|

-----------------------|----------------------|--------------------0-----|

--2--3--2-----0--------|----0--2-----3--------|--2--3--2-----0-----------|

-----------------------|----------------------|--------------------------|

-----------------------|--------------------------|-----------------------|

--0--------------------|--0--1--0-----------0--1--|--------0--------0-----|

--------3-----2--------|--------------3-----------|--3--------------------|

-----------------------|--------------------------|-----------------------|

-------------------------|----------------------|-----------------------|

--0--1--0-----------3----|-------1-----0--------|-----------------------|

--------------3----------|----------------------|--2--3--2-----0--------|

-------------------------|----------------------|-----------------------|

----------------------|--------------------------|-----------------------|

----------------------|--------------------0-----|--0--------------------|

----0--2-----3--------|--2--3--2-----0-----------|--------3-----2--------|

----------------------|--------------------------|-----------------------|

-------------------------|-------------------------|-------------------------|

--0-------0-----1--1-----|--0-------0-----0--------|--0-------0-----1--1-----|

----------------------3--|-------------------3-----|----------------------3--|

-------------------------|-------------------------|-------------------------|

-------------------------|-------------------------|-------------------------|

--0-------0-----0--------|--0-------0-----1--1-----|--0-------0-----0--------|

-------------------3-----|----------------------3--|-------------------3-----|

-------------------------|-------------------------|-------------------------|

-------------------------|-------------------------|-------------------|

--0-------0-----1--1-----|--0-------0--0-----------|--0----------------|

----------------------3--|-------------------3-----|-------------------|

-------------------------|-------------------------|-------------------|

-------------------|-------------------|--------------------|

-------------------|--0----------------|--------------------|

--0----------------|-------------------|-----------3--------|

-------------------|-------------------|--1-----------------|

-------------------|-------------------|-------------------|-------------------|

--0----------------|-------------------|-------------------|--0----------------|

-------------------|-------------------|--0----------------|-------------------|

-------------------|--3----------------|-------------------|-------------------|

--------------------------------------------------|

--------------------------------------------------|

--1--1--1--1--1--1--1--1--1--1--1--1--1--1--1--1--|

--------------------------------------------------|

--------------------------------------------------|

--------------------------------------------------|

--------------------------------------------------|

--1--1--1--1--1--1--1--1--1--1--1--1--1--1--1--1--|

--------------------------------------------------|

--------------------------------------------------|

--3--3--3--3--3--3--3--3--3--3--3--3--3--3--3--3--|

--------------------------------------------------|

--------------------------------|

--0--0--0--0--0--0--0-----------|

--------------------------3-----|

--------------------------------|

--------------------------------------------------|

--------------------------------------------------|

--1--1--1--1--1--1--1--1--1--1--1--1--1--1--1--1--|

--------------------------------------------------|

--------------------------------------------------|

--------------------------------------------------|

--------------------------------------------------|

--1--1--1--1--1--1--1--1--1--1--1--1--1--1--1--1--|

--------------------------------------------------|

--------------------------------------------------|

--------------------------------------------------|

--3--3--3--3--3--3--3--3--3--3--3--3--3--3--3--3--|

--------------------------------------------|

--0--0--0--0--0--0--0--0--0--0--0--0--------|

--------------------------------------3-----|

--------------------------------------------|

--------------------------------------------------|

--------------------------------------------------|

--1--1--1--1--1--1--1--1--1--1--1--1--1--1--1--1--|

--------------------------------------------------|

--------------------------------------------------|

--------------------------------------------------|

--------------------------------------------------|

--1--1--1--1--1--1--1--1--1--1--1--1--1--1--1--1--|

--------------------------------------------------|

--------------------------------------------------|

--3--3--3--3--3--3--3--3--3--3--3--3--3--3--3--3--|

--------------------------------------------------|

--------------------------------|

--0--0--0--0--0--0--0-----------|

--------------------------3-----|

--------------------------------|

--------------------------------------------------|

--------------------------------------------------|

--1--1--1--1--1--1--1--1--1--1--1--1--1--1--1--1--|

--------------------------------------------------|

--------------------------------------------------|

--------------------------------------------------|

--------------------------------------------------|

--1--1--1--1--1--1--1--1--1--1--1--1--1--1--1--1--|

--------------------------------------------------|-------------------|

--------------------------------------------------|--0----------------|

--------------------------------------------------|-------------------|

--3--3--3--3--3--3--3--3--3--3--3--3--3--3--3--3--|-------------------|

------------------|------------------|------------------|---------------------|

------------------|------------------|------------------|---------------------|

------------------|------------------|------------------|--3-------3----------|

------------------|------------------|------------------|---------------------|

--------------------------|-----------------------|

--------3-----2-----------|-----------------------|

--4-----------------4-----|--3------3----1--3-----|

--------------------------|-----------------------|

--------------------------------|---------------------|

--------------------------1-----|---------------------|

--4--3--1-----3-----4--3--------|--3-------3----------|

--------------------------------|---------------------|

--------------------------|-----------------------|

--------3-----2-----------|-----------------------|

--4-----------------4-----|--3------3----1--3-----|

--------------------------|-----------------------|

--------------------------------|-------------------|------------------|

--------------------------1-----|-------------------|------------------|

--4--3--1-----3-----4--3--------|-------------------|------------------|

--------------------------------|--3----------------|------------------|

-------------------|------------------|-------------------|------------------|

-------------------|------------------|-------------------|------------------|

--1----------------|------------------|-------------------|------------------|

-------------------|------------------|--3----------------|------------------|

-------------------|------------------|---------------------|

-------------------|------------------|---------------------|

--1----------------|------------------|--3-------3----------|

-------------------|------------------|---------------------|

--------------------------|-----------------------|

--------3-----2-----------|-----------------------|

--4-----------------4-----|--3------3----1--3-----|

--------------------------|-----------------------|

--------------------------------|---------------------|

--------------------------1-----|---------------------|

--4--3--1-----3-----4--3--------|--3-------3----------|

--------------------------------|---------------------|

--------------------------|-----------------------|

--------3-----2-----------|-----------------------|

--4-----------------4-----|--3------3----1--3-----|

--------------------------|-----------------------|

--------------------------------|-------------------|------------------|

--------------------------1-----|-------------------|------------------|

--4--3--1-----3-----4--3--------|-------------------|------------------|

--------------------------------|--0----------------|------------------|

-------------------|-------------------|-------------------|------------------|

-------------------|-------------------|-------------------|------------------|

-------------------|-------------------|-------------------|------------------|

--1----------------|--3----------------|--0----------------|------------------|

-------------------|-------------------|-------------------|------------------|

-------------------|-------------------|-------------------|------------------|

-------------------|--0----------------|-------------------|------------------|

--3----------------|-------------------|--0----------------|------------------|

-------------------|-------------------|-------------------|------------------|

-------------------|-------------------|-------------------|------------------|

-------------------|-------------------|-------------------|------------------|

--1----------------|--3----------------|--0----------------|------------------|

-------------------|-------------------|---------------------|

-------------------|-------------------|--0---------------0--|

-------------------|--0----------------|---------------------|

--3----------------|-------------------|---------------------|

----------------------|---------------------|---------------------|

----------------------|--0---------------0--|---------------------|

--1-----------3----3--|---------------------|--1---------3--------|

----------------------|---------------------|---------------------|

--------------------|----------------------|---------------------|

--0--------------0--|----------------------|--0---------------0--|

--------------------|--1-----------3----3--|---------------------|

--------------------|----------------------|---------------------|

---------------------|-------------------|-------------------|

---------------------|--0----------------|-------------------|

--1---------3--------|-------------------|--1----------------|

---------------------|-------------------|-------------------|

-------------------|--------------------|-------------------|

-------------------|--------------------|--0----------------|

--3----------------|--1--------0--------|-------------------|

-------------------|--------------------|-------------------|

-------------------|-------------------|--------------------|

-------------------|-------------------|--------------------|

--3----------------|-------------------|--3--------3--------|

-------------------|--3----------------|--------------------|

--------------------------------------|--------------------------------------|

--0--0--0--0--0--0--0--0--0--0--0--0--|--------------------------------------|

--------------------------------------|--1--1--1--1--1--1--1--1--1--1--1--1--|

--------------------------------------|--------------------------------------|

--------------------------------------|--------------------------------------|

--------------------------------------|--------------------------------------|

--3--3--3--3--3--3--3--3--3--3--3--3--|--1--1--1--1--1--1--0--0--0--0--0--0--|

--------------------------------------|--------------------------------------|

--------------------------------------|--------------------------------------|

--0--0--0--0--0--0--0--0--0--0--0--0--|--------------------------------------|

--------------------------------------|--3--3--3--3--3--3--3--3--3--3--3--3--|

--------------------------------------|--------------------------------------|

-------------------|--------------------|-------------------|

-------------------|--------------------|--0----------------|

-------------------|-----------3--------|-------------------|

--3----------------|--1-----------------|-------------------|

------------------------|-------------------|-------------------|

--0-----------0---------|-------------------|-------------------|

--------0---------------|--1----------------|-------------------|

------------------------|-------------------|--1----------------|

-------------------|--------------------|-------------------|

-------------------|--0-----------------|-------------------|

--3----------------|-----------3--------|--1----------------|

-------------------|--------------------|-------------------|

-------------------|-------------------|-----------------------|

-------------------|-------------------|--0--------0-----------|

-------------------|-------------------|-----------------3-----|

--1----------------|--3----------------|-----------------------|

-------------------|-------------------|-------------------|

-------------------|-------------------|-------------------|

--1----------------|-------------------|--3----------------|

-------------------|--1----------------|-------------------|

--------------------|-------------------|-------------------|

--0-----------------|-------------------|-------------------|

-----------3--------|--1----------------|--0----------------|

--------------------|-------------------|-------------------|

--------------------------|----------------------------|

--------------------------|----------------------------|

--------------------------|--0---0----0---0---0----0---|

--3-----3-3-3-3-----3-3-3-|----------------------------|

--------------------------|---------------------------|-------------------|

--------------------------|---------------------------|--0----------------|

--1-----1-1-1-1-----1-1-1-|--3-3-3-3-3-3-4---4----4---|-------------------|

--------------------------|---------------------------|-------------------|

--7--7-7--7-7-5-------0----0-----------------|---------------------|

----------------8-7-8----3---3-2-0-----0-----|---------------------|

--------------7---5----------2-----3-1-------|------3-----1--------|

---------------------------------------------|---------------------|

-----3-----3-3-3-3------|-------------------|-------------------|

------------------------|-------------------|-------------------|

--1---------------------|------3------------|--3----------------|

------------------------|-------------------|-------------------|

-------------------|-------------------|-------------------|------------------||

--0----------------|--0----------------|----0--------------|------------------||

-------------------|-------------------|-------------------|------------------||

-------------------|-------------------|-------------------|------------------||

Taken from The BassMasta -- http://www.tabs-database.com

Get this song at:  amazon.com sheetmusicplus.com

Share your thoughts

0 Comments found