Nightwish

Nightwish - Pharao Sails To Orion guitar tab

The Pharao Sails To Orion

by Nightwish

from Oceanborn

TABBER: Emppu_jr.

PLEASE RATE!

tuned in(EADGBe)

Intro:

BELLS..

D G# D G# A G

guitar enters

e:-------------------------------------------------------|

B:-------------------------------------------------------|

G:-------------------------------------------------------|

D:-7-7--7-7---7-7--7-7------7-7--7-7---7-7--7-7--------8-| Thou shalt

A:-5-5--5-5---5-5--5-5--6---5-5--5-5---5-5--5-5--5-6-5-6-|

E:----------------------4------------------------3-4-3---|

die! oooohhhhhhh......

p.m . . . . . . . . . . . . . . . . . . . .

e:-----------------------------------------------------|

B:-----------------------------------------------------|

G:-----------------------------------------------------|

D:-7---------7---------7-----7---------7---------7-----| x2

A:-5-5-5-5-5-5-5-5-5-5-5-5-5-5-5-5-5-5-5-5-5-5-5-5-5-5-|

E:-----------------------------------------------------|

keybord...

pm . . . . . .

e:-------------------------------------------------------------|

B:-------------------------------------------------------------|

G:-------------------------------------------------------------|

D:------------------7-------3-5-7------------------7-------3-5-|

A:-5*---------7--5--5-5*----1-3-5-5*---------7--5--5-5*----1-3-|

E:------4*----5--3---------------------4*----5--3--------------|

pre-verseriff:

e:------------------------------------------|

B:------------------------------------------|

G:------------------------------------------|

D:-7-7-8-7-5-7-8-5-7--7-7-7-8-7-5-10-10-8-7-|

A:-5-5-6-5-3-5-6-3-5--5-5-5-6-5-3-8--8--6-5-|

E:------------------------------------------|

Verseriff:

e:-------------------------------------------------------------------------|

B:-------------------------------------------------------------------------|

G:-------------------------------------------------------------------------|

D:-7-8-7-5-7-8-5-7--7-8-7-7---4-----4-4-5-4-2-2h4-4-4/5-5--4-5-4-2-7-7-5-4-|

A:-5-6-5-3-5-6-3-5--5-6-5-5-6---3-5-2-2-3-2-0-0h2-2-2/3-3--2-3-2-0-5-5-3-2-|

E:-------------------------------------------------------------------------|

e:---------------------------------------------------------------------------|

B:---------------------------------------------------------------------------|

G:---------------------------------------------------------------------------|

D:-7-8-7-5-7-8-5-7---7-8-7-5-10-10-8-7--4-5-4-2-2h4-4-4/5-5--4-5-4-2-7-7-5-4-|

A:-5-6-5-3-5-6-3-5---5-6-5-3-8--8--6-5--2-3-2-0-0h2-2-2/3-3--2-3-2-0-5-5-3-2-|

E:---------------------------------------------------------------------------|

keyboard...

pm . . . . . .

e:-------------------------------------------------------------|

B:-------------------------------------------------------------|

G:-------------------------------------------------------------|

D:------------------7-------3-5-7------------------7-------3-5-|

A:-5*---------7--5--5-5*----1-3-5-5*---------7--5--5-5*----1-3-|

E:------4*----5--3---------------------4*----5--3--------------|

Verseriff:

e:-------------------------------------------------------------------------|

B:-------------------------------------------------------------------------|

G:-------------------------------------------------------------------------|

D:-7-8-7-5-7-8-5-7--7-8-7-7---4-----4-4-5-4-2-2h4-4-4/5-5--4-5-4-2-7-7-5-4-|

A:-5-6-5-3-5-6-3-5--5-6-5-5-6---3-5-2-2-3-2-0-0h2-2-2/3-3--2-3-2-0-5-5-3-2-|

E:-------------------------------------------------------------------------|

e:---------------------------------------------------------------------------|

B:---------------------------------------------------------------------------|

G:---------------------------------------------------------------------------|

D:-7-8-7-5-7-8-5-7---7-8-7-5-10-10-8-7--4-5-4-2-2h4-4-4/5-5--4-5-4-2-7-7-5-4-|

A:-5-6-5-3-5-6-3-5---5-6-5-3-8--8--6-5--2-3-2-0-0h2-2-2/3-3--2-3-2-0-5-5-3-2-|

E:---------------------------------------------------------------------------|

piano-before-chorus part

e:-------------------------- --------------------------------------|

B:-------------------------- --------------------------------------|

G:-*---------------------*-- --------------------------------------|

D:-*--7--7-8-5-7--7-7-5--*-- -7--7-8-5-7--7-7-5--7--7-8-5-7--7-7-5-|

A:----5--5-6-3-5--5-5-3----- -5--5-6-3-5--5-5-3--5--5-6-3-5--5-5-3-|

E:-------------------------- --------------------------------------|

Chorus:

..face to me..

p.m . . . . . .

e:----------------------------------------------------------------------------|

B:----------------------------------------------------------------------------|

G:----------------------------------------------------------------------------|

D:-7-------7------5--7-----------7--5--3-----------5-----7-------------7-5—-3-|

A:-5---7---5---3--3--5---5---7---5--3--1-1*--3-----3-3*--5-5-5-5-5-5-5-5-3—-1-|

E:-----5-------1---------3---5---------------1-1*-----------------------------|

----------------------------------------------|

----------------------------------------------|

----------------------------------------------|

-----------7--7-5-3-7--7-5--3-----------5-----|

--3---5----5--5-3-1-5--5-3--1-1*--3-----3-3*--|

--1---3----5--5-3---5--5-3----1-1*------------|

p.m . . . . . .

e:-------------------------------------|

B:-------------------------------------|

G:-------------------------------------|

D:--7-------------7-5-3-----------7----|

A:--5-5-5-5-5-5-5-5-3-1---3---5---5----|

E:------------------------1---3--------|

e:--------------------------------|

B:--------------------------------|

G:--------------------------------|

D:-5-5-5-----3-3-2-2-----5-5-3-5--| x2

A:-3-3-3-4-4---------4-4-3-3-1-3--|

E:--------------------------------|

"Open thy veins for my venom.."

e:---------------------|

B:---------------------|

G:---------------------|

D:------3---------3----|

A:-5----1----5----1----|

E:-3---------3---------|

e:--------------------------------|

B:--------------------------------|

G:--------------------------------|

D:-5-5-5-----3-3-2-2-----5-5-3-5--| x2

A:-3-3-3-4-4---------4-4-3-3-1-3--|

E:--------------------------------|

flute solo:

e:---------------------------|

B:---------------------------|

G:---------------------------|

D:-2----3---5---2----5---7---| x2

A:-2----3---5---2----5---7---|

E:-0----1---3---0----3---5---|

Break:

e:---------------------------------------------------------------------------|

B:---------------------------------------------------------------------------|

G:---------------------------------------------------------------------------|

D:-7---3-3---5-5-7\\---3-3--5--7---3-3---5-5-7--3-3-5---7---3---5---3--2--7--|

A:-5---1-1---3-3-5\\---1-1--3--5---1-1---3-3-5--1-1-3---5---1---3---1--0--5--|

E:---------------------------------------------------------------------------|

-----------|

-----------|

-----------|

5-------5--|

3--5--3-3--|

---3--1----|

Ohh...

e:---------------------------------------------------------------------------|

B:---------------------------------------------------------------------------|

G:---------------------------------------------------------------------------|

D:-7--------7--------7--------7--------3--------3--------3--------3--------5-|

A:-5-(5)(5)-5-(5)(5)-5-(5)(5)-5-(0)(0)-1-(1)(1)-1-(1)(1)-1-(1)(1)-1-(1)(1)-3-|

E:---------------------------------------------------------------------------|

---------------------------|

---------------------------|

---------------------------|

(3)(3)-3-(3)(3)-3-(3)(3)-3-|

------5--------5--------5--|

---------------------------|

e:---------------------------------------------------------------------------|

B:---------------------------------------------------------------------------|

G:---------------------------------------------------------------------------|

D:--------3--------3--------2--------2--------7--------7--------7--------7---|

A:-(0)(0)-1-(0)(0)-1-(0)(0)-0-(0)(0)-0-(0)(0)-5-(5)(5)-5-(5)(5)-5-(5)(5)-5---|

E:---------------------------------------------------------------------------|

-------------------------------------|

-------------------------------------|

-------------------------------------|

----5--------5--------5--------5-----|

(0)(0)-3-(3)(3)-3-(3)(3)-3-(3)(3)-3--|

-------------------------------------|

e:---------------------------------------------------------------------------|

B:---------------------------------------------------------------------------|

G:---------------------------------------------------------------------------|

D:--------------------------------------------------------------5--------5-7-|

A:-(3)(3)-5--------5--------5--------5--------3--------3--------3-(3)(3)-3-5-|

E:--------3-(3)(3)-3-(3)(3)-3-(3)(3)-3-(0)(0)-1-(1)(1)-1-(1)(1)--------------|

----------------|

----------------|

----------------|

--------------7-|

------------7-5-|

------------5---|

guit 1

not so sure about this..

more than one pic/tone (don't know how many, it's very hard to count them..

you hear what will sound pretty good..)

e:-----------------------------------------------------------|

B:-------------12-13-14-14-13-13-12--------------------------|

G:----11-12-14----------------------14-12-11-----------------|

D:-12-----------------------------------------14-12-----12---|

A:---------------------------------------------------12------|

E:-----------------------------------------------------------|

Chorus:

p.m . . . .

e:-----------------------------------------------------------------------|

B:-----------------------------------------------------------------------|

G:-----------------------------------------------------------------------|

D:-3-------5---7--7-5-3-----------7---------7-5-3-------5---7---7-5-3--2-|

A:-1---3---3---5--5-3-1---3---5---5-5-5-5-5-5-3-1---3---3---5---5-3-1--0-|

E:-----1------------------1---3---------------------1--------------------|

Ending:

p.m. . . . . . . . . . . . . . . . . . . . . . . . . . . . . . . . .

e:---------------------------------------------------------------------------|

B:---------------------------------------------------------------------------|

G:---------------------------------------------------------------------------|

D:-----------------------------------------------------------------------7---|

A:-----------------------------------1--1-1-1-1--1-1-1-3-3-3-3-3-3-3-4-4-5---|

E:-3--3-3-3-3--3-3-3-5-5-5-5-5-5-5-5-----------------------------------------|

e:----------------------------|

B:----------------------------|

G:----------------------------|

D:-5--3-----5------7--------7-|

A:-3--1-----3------5--------5-|

E:----------------------------|

I'm not sure about this solo, but mayby this is a hint:

e:--10--9-----------------9-------------------10-10-10-10-15-15-14------|

B:--------11~--10h11-10\8---11-10\8-10------------------------------15~-|

G:-------------------------------------7-7~~\\--------------------------|

D:----------------------------------------------------------------------|

A:----------------------------------------------------------------------|

E:----------------------------------------------------------------------|

-10--9-----------------9------------10-10----10-9-----------------9-----|

------11~--10h11-10\8----11-10\8-10---------------11~--10h11-10\8-------|

------------------------------------------------------------------------|

------------------------------------------------------------------------|

------------------------------------------------------------------------|

------------------------------------------------------------------------|

------------------------10--9------------------9------------10-10-------|

--11-10-8-10------------------11~--10h11-10\8----11-10\8-10-------------|

---------------7-7~~----------------------------------------------------|

------------------------------------------------------------------------|

------------------------------------------------------------------------|

------------------------------------------------------------------------|

--10-10-10-10/15-15-14--------------|

-----------------------15\----------|

------------------------------------|

------------------------------------|

------------------------------------|

------------------------------------|

END!

Tablature explanation:

p.m = palm muted

* = contine picking

h = hammer on

-*---*--|

-*---*--| = play twice

\= slide down

(5) = ghost note

~ = vibrato

/= slide up

Get this song at:  amazon.com sheetmusicplus.com

Share your thoughts

0 Comments found