Nightwish

Nightwish - Phantom Of The Opera guitar tab

Nightwish : The Phantom of the Opera

Tuning : C G C F A D

Listen to the song and get the rhythm

Intro:

0:14

|---------|--------------------------------------------------------

|---------|--------------------------------------------------------

|--piano--|--------------------------------------------------------

|---------|--6h8-8-9-10-11-0---0-11-10-9-8-6h8---8-9-10-11-0-------

|---------|--6h8-8-9-10-11-0---0-11-10-9-8-6h8---8-9-10-11-0-------

|---------|--6h8-8-9-10-11-0---0-11-10-9-8—6h8---8-9-10-11-0-------

Verse I:

0:41

|-----------------------------------------------

|-----------------------------------------------

|-----------------------------------------------

|--8---10---12--------------------------12--8---

|--8---10---12-------12----12-15--14----12--8---

|--8---10---12----12----12------12--12--12--8---

Chorus I: 0:57

|---------------------------------------

|---------------------------------------

|---------------------------------------

|--0---0-11-10-9-8---6h8---8—8-7-6-5----

|--0---0-11-10-9-8---6h8---8-8-7-6-5----

|--0---0-11-10-9-8---6h8---8-8-7-6-5----

Verse II:

1:21

|-------------------------------------

|-------------------------------------

|-------------------------------------

|--1---3---5-----------------5---1----

|--1---3---5-----5---5-8-7---5---1----

|--1---3---5---5---5---------5---1----

Chorus II:

1:36

|-----------------------------

|-----------------------------

|-----------------------------

|--5---5-4-3-2-1---0---2------

|--5---5-4-3-2-1---0---2------

|--5---5-4-3-2-1---0---2------

Verse III:

2:02

|-------------------------------------------------

|-------------------------------------------------

|-------------------------------------------------

|--5---0---2----------------2-2-2-2-2-5-5-5-5-5---

|--3---0---2-----2---2-5-4--2-2-2-2-2-3-3-3-3-3---

|------0---2---2---2----2-2-2-2-2-2-2-5-5-5-5-5---

Chorus III:

2:16

|----------------------------------------------------

|----------------------------------------------------

|----------------------------------------------------

|--2-2-2-2-2—-2-2-2-1-0-6-5-5-5-5-5--5-5-5-6-0-1-2---

|--2-2-2-2-2--2-2-2-1-0-4-3-3-3-3-3--3-3-3-4-0-1-2---

|--2-2-2-2-2--2-2-2-1-0----------------------0-1-2---

Interlude:

2:30

|-------------------------------------

|-------------------------------------

|-------------------------------------

|--3----1--3----8--8-3------1---3-----

|--3----1--3----8--8-3------1---3-----

|--3----1--3----8--8-3------1---3-----

Verse IV:

2:38

|-------------------------------------------------------------

|-------------------------------------------------------------

|-------------------------------------------------------------

|--6---1---333333333333333--6---1---3333333333333333---6---3--

|--4---1---333333333333333--4---1---3333333333333333---4---3--

|------1---333333333333333------1---3333333333333333-------3--

Chorus IV:

3:07

|----------------------------

|----------------------------

|----------------------------

|--3---3-2-1-0-6---6-0-1-2-3-

|--3---3-2-1-0-4---4-0-1-2-3-

|--3---3-2-1-0-------0-1-2-3-

Outro:

3:21 - 3:05

|------------------------------

|------------------------------

|------------------------------

|------------------------------

|----------5-4~---------5-4*~--

|--5-8-5-8------5-8-5-8--------

Get this song at:  amazon.com sheetmusicplus.com

Share your thoughts

0 Comments found