Nightwish

Nightwish - Phantom Of The Opera bass tab

tune down

F||------------------|------------------|------------------------|

C||------------------|------------------|------------------------|

G||------------------|------------------|------------------------|

D||------------------|------------------|----------3-4---4-5-6-7-|

----------------------------------|----------------------------------|

----------------------------------|----------------------------------|

----------------------------------|----------------------------------|

--8-8-8-8-8-8-8-8-8-8-8-8-8-7-6-5-|--4-4-4-4-4-4-4-4-3-4-4-4-4-5-6-7-|

-------------------|--------------------|-------------------|

-------------------|--------------------|-------------------|

-------------------|-----------1--------|--3----------------|

--8----------------|--4-----------------|-------------------|

--------------------|-------------------|----------------------------------|

--------------------|-------------------|----------------------------------|

-----------1--------|--3----------------|------------------1-1-1-1-1-1-1-1-|

--4-----------------|-------------------|--4-4-4-4-4-4-4-4-----------------|

----------------------------------|-------------------|-------------------|

----------------------------------|-------------------|-------------------|

--3-3-3-3-3-3-3-3-3-3-3-3-3-3-3-3-|--3----------------|-------------------|

----------------------------------|-------------------|--4----------------|

----------------------------------|----------------------------------|

----------------------------------|----------------------------------|

----------------------------------|----------------------------------|

--8-8-8-8-8-8-8-8-8-8-8-8-8-7-6-5-|--4-4-4-4-4-4-4-4-3-4-4-4-4-4-4-4-|

-------------------|--------------------|-------------------|

-------------------|-----------1--------|--3----------------|

-------------------|--4-----------------|-------------------|

--1----------------|--------------------|-------------------|

--------------------|-------------------|----------------------------------|

-----------1--------|--3----------------|------------------1-1-1-1-1-1-1-1-|

--4-----------------|-------------------|--4-4-4-4-4-4-4-4-----------------|

--------------------|-------------------|----------------------------------|

----------------------------------|-------------------|-------------------|

--3-3-3-3-3-3-3-3-3-3-3-3-3-3-3-3-|--3----------------|-------------------|

----------------------------------|-------------------|--4----------------|

----------------------------------|-------------------|-------------------|

----------------------------------|----------------------------------|

----------------------------------|----------------------------------|

--8-8-8-8-8-8-8-8-8-8-8-8-8-7-6-5-|--4-4-4-4-4-4-4-4-3-3-3-3-3-3-3-3-|

----------------------------------|----------------------------------|

-------------------|--------------------|-------------------|

-------------------|--------------------|-------------------|

--5----------------|--1--------3--------|--5----------------|

-------------------|--------------------|-------------------|

--------------------|-------------------|----------------------------------|

--------------------|-------------------|----------------------------------|

--1--------3--------|--5----------------|--1-1-1-1-1-1-1-1-3-3-3-3-3-3-3-3-|

--------------------|-------------------|----------------------------------|

----------------------------------|------------------------------|

--0-0-0-0-0-0-0-0-0-0-0-0-0-0-0-0-|------------------------------|

----------------------------------|--5--5-5-5--5-5-5--5-5-5--5-5-|

----------------------------------|------------------------------|

------------------------------|-------------------------------|

------------------------------|-------------------------------|

--1--1-1-1--1-1-1--1-1-1--1-1-|--5--5-5-5--5-5-5--5-5-5-4-3-2-|

------------------------------|-------------------------------|

-------------------------------|-------------------------------|

-------------------------------|-------------------------------|

--1--1-1-1--1-1-1--1-1-1-2-3-4-|--5--5-5-5--5-5-5--5-5-5-4-3-2-|

-------------------------------|-------------------------------|

------------------------------|-----------------------|---------------------|

------------------------------|-----------------------|---------------------|

--1--1-1-1--1-1-0--0-0-0--0-0-|--6-------4-6-----4--4-|--6-------4-6--------|

------------------------------|-----------------------|---------------------|

----------------------------------|----------------------------------|

----------------------------------|----------------------------------|

--2-2-2-2-2-2-2-2-4-4-4-4-4-4-4-4-|--6-6-6-6-6-6-6-6-6-6-6-6-6-6-6-6-|

----------------------------------|----------------------------------|

----------------------------------|----------------------------------|

----------------------------------|----------------------------------|

--2-2-2-2-2-2-2-2-4-4-4-4-4-4-4-4-|--6-6-6-6-6-6-6-6-6-6-6-6-6-6-6-6-|

----------------------------------|----------------------------------|

----------------------------------|----------------------------------|

----------------------------------|----------------------------------|

--2-2-2-2-2-2-2-2-4-4-4-4-4-4-4-4-|--6-6-6-6-6-6-6-6-6-6-6-6-6-6-6-6-|

----------------------------------|----------------------------------|

------------------------------|------------------------------|

------------------------------|------------------------------|

--6--6-6-6--6-6-6--6-6-6--6-6-|--2--2-2-2--2-2-2--2-2-2--2-2-|

------------------------------|------------------------------|

-------------------------------|-------------------------------|

-------------------------------|-------------------------------|

--6--6-6-6--6-6-6--6-6-6-5-4-3-|--2--2-2-2--2-2-2--2-2-2-3-4-5-|

-------------------------------|-------------------------------|

-------------------------------|------------------------------|

-------------------------------|------------------------------|

--6--6-6-6--6-6-6--6-6-6-5-4-3-|--2--2-2-2--2-2-2--2-2-2--2-2-|

-------------------------------|------------------------------|

|-----------------------------------|-----------------------------------||

|*----------5---4-3---------5---4-3-|----------5---4-3---------5---4-3-*||

|*--3-3-3-3---3-----3-3-3-3---3-----|--3-3-3-3---3-----3-3-3-3---3-----*||

|-----------------------------------|-----------------------------------||

-----------------------------------|-----------------------------------||

*----------7---6-5---------7---6-5-|----------7---6-5---------7---6-5-*||

*--5-5-5-5---5-----5-5-5-5---5-----|--5-5-5-5---5-----5-5-5-5---5-----*||

-----------------------------------|-----------------------------------||

----------------------------------|----------------------------------|

----------7---6-5---------7---6-5-|----------7---6-5---------7---6-5-|

--5-5-5-5---5-----5-5-5-5---5-----|--5-5-5-5---5-----5-5-5-5---5-----|

----------------------------------|----------------------------------|

----------------------------------|----------------------------------|

----------7---6-5---------7---6-5-|----------7---6-5---------7---6-5-|

--5-5-5-5---5-----5-5-5-5---5-----|--5-5-5-5---5-----5-5-5-5---5-----|

----------------------------------|----------------------------------|

------------------||

------------------||

------------------||

------------------||

Taken from The BassMasta -- http://www.tabs-database.com

Get this song at:  amazon.com sheetmusicplus.com

Share your thoughts

0 Comments found