Nightwish

Nightwish - Passion And The Opera guitar tab

Intro:

guit 1

p.m . . . . . . . . . . .

e:-------------------------------------------------------------------------|

B:-------------------------------------------------------------------------|

G:---------|---------------------------------------------------------------|

D:---------|--------------------6-7-9-7-6----------------------------------|

A:-2/132/---7h9-9-9-9-9--7h9-9-----------9-7-7h9-9-9-9-9--7h9-9-7---------|

E:-----------------------------------------------------------------9-8-7~--|

e:------------------------------------------------------------------|

B:------------------------------------------------------------------|

G:------------------------------------------------------------------|

D:--------------------6-7-9-7-6----------------------7p6---9p7-6----|

A:-7h9-9-9-9-9--7h9-9-----------9-7-7h9-9-9-9-9--7h9-----9----------|

E:------------------------------------------------------------------|

guit 2

listen when guit 2 enters

e:---------------------------------------------------------|

B:---------------------------------------------------------|

G:-----------------2-4-------------------2------------2-4--|

D:-4-4--4-4---4-4--2-4-------------------2------------2-4--|

A:-4-4--4-4---4-4--0-2-------------------0------------0-2--|

E:-2-2--2-2---2-2--------2-2-2-2-2-2-2-2----2-2-2-2-2------|

e:----------------------------------------------------------------------|

B:----------------------------------------------------------------------|

G:-----------------2------------2-4-------------------2------------2-4--|

D:-----------------2------------2-4-------------------2------------2-4--|

A:-----------------0------------0-2-------------------0------------0-2--|

E:-2-2-2-2-2-2-2-2----2-2-2-2-2-------2-2-2-2-2-2-2-2----2-2-2-2-2------|

Verse:

Princess of lust..

e:---------------------------------------------------------------------------|

B:---------------------------------------------------------------------------|

G:---------------------------------------------------------------------------|

D:---------------------------------------------------------------------------|x2

A:---------------------------------5-5-5--5-5-5-5-5-5-5--4-4-4--4-4-4-4--2---|

E:-2-2-2--2-2-2-2-2-2-2--2-2-2--2-2-2-2-2-2-2---------------------------0----|

An Aphrodite..

e:---------------------------------------------------------------------------|

B:---------------------------------------------------------------------------|

G:---------------------------------------------------------------------------|

D:---------------------------------------------------------------------------|x2

A:---------------------------------5-5-5--5-5-5-5-5-5-5--4-4-4--4-4-4-4--2---|

E:-2-2-2--2-2-2-2-2-2-2--2-2-2--2-2-2-2-2-2-2-------------------------0------|

Licks:

guit 1

e:----------------------------------------2-----5-7-9--9-7-5-4------|

B:-----------------------2-3-5--5-3-2--------------------------5-2--|

G:-6---6-4-2-1--2---------------------4-----------------------------|

D:----------------2-2-2-----------------4---------------------------|

A:------------------------------------------------------------------|

E:------------------------------------------------------------------|

guit 2

e:------------------------------------------5-------------------------|

B:-----------------------7-9-10--10-9-7-5---------7-9-10--10-9-7-5----|

G:-6---6-4-2-1--2-------------------------6------------------------6--|

D:----------------2-2-2-----------------------------------------------|

A:--------------------------------------------------------------------|

E:--------------------------------------------------------------------|

Verse:

Naked limbs reflecting from the moon..

e:---------------------------------------------------------------------------|

B:---------------------------------------------------------------------------|

G:---------------------------------------------------------------------------|

D:---------------------------------------------------------------------------|x2

A:---------------------------------5-5-5--5-5-5-5-5-5-5--4-4-4--4-4-4-4--2---|

E:-2-2-2--2-2-2-2-2-2-2--2-2-2--2-2-2-2-2-2-2----------------------------0---|

An aphrodite..

e:---------------------------------------------------------------------------|

B:---------------------------------------------------------------------------|

G:---------------------------------------------------------------------------|

D:---------------------------------------------------------------------------|x2

A:---------------------------------5-5-5--5-5-5-5-5-5-5--4-4-4--4-4-4-4--2---|

E:-2-2-2--2-2-2-2-2-2-2--2-2-2--2-2-2-2-2-2-2--------------------------0-----|

Licks:

guit 1

e:----------------------------------------2-----5-7-9--9-7-5-4------|

B:-----------------------2-3-5--5-3-2--------------------------5-2--|

G:-6---6-4-2-1--2---------------------4-----------------------------|

D:----------------2-2-2-----------------4---------------------------|

A:------------------------------------------------------------------|

E:------------------------------------------------------------------|

guit 2

e:------------------------------------------5-------------------------|

B:-----------------------7-9-10--10-9-7-5---------7-9-10--10-9-7-5----|

G:-6---6-4-2-1--2-------------------------6------------------------6--|

D:----------------2-2-2-----------------------------------------------|

A:--------------------------------------------------------------------|

E:--------------------------------------------------------------------|

Riff:

p.m. . . . . . . . . . . . .

e:-----------------------------------|

B:-----------------------------------|

G:-----------------------------------|

D:-----------------2------------2-4--| x2

A:-----------------0------------0-2--|

E:-0-2-0-2-0-2-0-2----0-2-0-2-0------|

"Intro Riff"

e:-----------------------------------------------------------------|

B:-----------------------------------------------------------------|

G:----------------------3-4-6-4-3----------------------------------|

D:---4h6-6-6-6-6--4h6-6-----------6-4-4h6-6-6-6-6--4h6-6-4---------|

A:---------------------------------------------------------6-5-4~--|

E:----------------------------------------------------------------|

e:----------------------------------------------------------------|

B:----------------------------------------------------------------|

G:--------------------3-4-6-4-3----------------------3p4---6p4-3--|

D:-4h6-6-6-6-6--4h6-6-----------6-4-4h6-6-6-6-6--4h6-----6--------|

A:----------------------------------------------------------------|

E:----------------------------------------------------------------|

e:----------------------------------------------------|

B:----------------------------------------------------|

G:------*------------------------------------------*--|

D:------*------------------------------------------*--|

A:----------------------------------------------------|

E:-/12--0-0-0--0-0-0-0-0-0-0--0-0-0--0-0-0-0-0-0-0---|

e:---------------------------------------------|

B:---------------------------------------------|

G:---------------------------------------------|

D:---------------------------------------------|

A:-0-0-0--0-0-0-0-0-0-0--0-0-0--0-0-0-0-0-0-0--|

E:---------------------------------------------|

e:------------------------------------------------------|

B:------------------------------------------------------|

G:-----------------------listen for right rhythm here..-|

D:------------------------------------------------------|

A:------------------------------------------------------|

E:-0-0-0--0-0-0-0-0-0-0--0-0-0--0-0-0-0-0-0-0-----------|

e:---------------------------------------------------------------------------------------|

B:---------------------------------------------------------------------------------------|

G:---------------------------------------------------------------------------------------|

D:-6-----6-----6-----6-----6-----6-----6-----6--2-----2-----2-----2-----2-2--------------|

A:-4-4-4-4-4-4-4-4-4-4-4-4-4-4-4-4-4-4-4-4-4-4--0-0-0-0-0-0-0-0-0-0-0-0-0-0-0-0-0-0-0-2--|

E:---------------------------------------------------------------------------------------|

e:---------------------------------------------------------|

B:---------------------------------------------------------|

G:---------------------------------------------------------|

D:-6-----6-----6-----6-----6-----6-----6-----6--7--9--11---|

A:-4-4-4-4-4-4-4-4-4-4-4-4-4-4-4-4-4-4-4-4-4-4--5--7--9----|

E:---------------------------------------------------------|

e:--------------------------------------------------------------------------|

B:-----------------------------------------------------------------------5--|

G:-----------------------------------------------------------------------4--|

D:------------------------------------------------------------------------2-|

A:--------------------------------------------------------------------------|

E:-0-0-0--0-0-0-0-0-0-0--0-0-0--0-0-0-0-0-0-0--0-0-0--0-0-0-0-0-0-0--0--0-0-|

e:--------------------------------------------------|

B:--------------------------------------------------|

G:--*--------------------------------------------*--|

D:--*--------------------------------------------*--|

A:--------------------------------------------------|

E:----0-0-0--0-0-0-0-0-0-0--0-0-0--0-0-0-0-0-0-0----|

e:--------------------------------------------------------------------------------------------|

B:--------------------------------------------------------------------------------------------|

G:--*-----------------------------------------------------------------------------------------|

D:--*-----------------------------------------------------------------------------------------|

A:----4-4-4--4-4-4-4-4-4-4--4-4-4--4-4-4-4-4-4-4--0-0-0--0-0-0-0-0-0-0--0-0-0--0-0-0-0-0-0-0--|

E:--------------------------------------------------------------------------------------------|

e:----------------------------|

B:----------------------------|

G:--------6----2----6----2----|

D:-2------6----2----6----2----| x2

A:-2------4----0----4----0----|

E:-0--------------------------|

Get this song at:  amazon.com sheetmusicplus.com

Share your thoughts

0 Comments found