Nightwish

Nightwish - Passion And The Opera bass tab

tune down

F#||------------------|------------------|----------------------|

C#||------------------|------------------|----------------------|

G#||------------------|------------------|----------------------|

D#||------------------|------------------|--2-2-----2-2---------|

----------------------|---------------------------|-------------------------|

----------------------|---------------------------|-------------------------|

------------0----2----|----------------------0----|---------------0----2----|

--2-2-----------------|--2-2--2-2--2-2--2-2-------|--2-2--2-2--2------------|

---------------------------|-------------------------|

---------------------------|-------------------------|

----------------------0----|---------------0----2----|

--2-2--2-2--2-2--2-2-------|--2-2--2-2--2------------|

---------------------------|-------------------------|

---------------------------|-------------------------|

----------------------0----|---------------0----2----|

--2-2--2-2--2-2--2-2-------|--2-2--2-2--2------------|

---------------------------|-------------------------|

---------------------------|-------------------------|

----------------------0----|---------------0----2----|

--2-2--2-2--2-2--2-2-------|--2-2--2-2--2------------|

----------------------------|----------------------------|

----------------------------|----------------------------|

----------------------------|----------------------------|

--2-2-2----2-2-2--2--2-2-2--|--2-2-2----2-2-2--2--2-2-2--|

----------------------------|--------------------------|

----------------------------|--------------------------|

--5-5-5----5-5-5--5--5-5-5--|--4-4-4----4-4-4--4-------|

----------------------------|---------------------0----|

----------------------------|----------------------------|

----------------------------|----------------------------|

----------------------------|----------------------------|

--2-2-2----2-2-2--2--2-2-2--|--2-2-2----2-2-2--2--2-2-2--|

----------------------------|--------------------------|

----------------------------|--------------------------|

--5-5-5----5-5-5--5--5-5-5--|--4-4-4----4-4-4--4-------|

----------------------------|---------------------0----|

----------------------------|----------------------------|

----------------------------|----------------------------|

----------------------------|----------------------------|

--2-2-2----2-2-2--2--2-2-2--|--2-2-2----2-2-2--2--2-2-2--|

----------------------------|--------------------------|

----------------------------|--------------------------|

--5-5-5----5-5-5--5--5-5-5--|--4-4-4----4-4-4--4-------|

----------------------------|---------------------0----|

----------------------------|----------------------------|

----------------------------|----------------------------|

----------------------------|----------------------------|

--2-2-2----2-2-2--2--2-2-2--|--2-2-2----2-2-2--2--2-2-2--|

----------------------------|--------------------------|

----------------------------|--------------------------|

--5-5-5----5-5-5--5--5-5-5--|--4-4-4----4-4-4--4-------|

----------------------------|---------------------0----|

--------------------------|--------------------------|

--------------------------|--------------------------|

--------------------------|--------------------------|

--2-2-2----2-2-2-2-2------|--2-2-2----2-2-2-2-2------|

--------------------------|--------------------------|

--0-0-0----0-0-0-0-0------|--------------------------|

--------------------------|--0-0-0----0-0-0-0-0------|

--------------------------|--------------------------|

--------------------------|--------------------------|

--------------------------|--------------------------|

--------------------------|--------------------------|

--2-2-2----2-2-2-2-2------|--2-2-2----2-2-2-2-2------|

--------------------------|--------------------------|

--0-0-0----0-0-0-0-0------|--------------------------|

--------------------------|--0-0-0----0-0-0-0-0------|

--------------------------|--------------------------|

----------------------------|----------------------------|

----------------------------|----------------------------|

----------------------------|----------------------------|

--2-2-2----2-2-2--2--2-2-2--|--2-2-2----2-2-2--2--2-2-2--|

----------------------------|--------------------------|

----------------------------|--------------------------|

--5-5-5----5-5-5--5--5-5-5--|--4-4-4----4-4-4--4-------|

----------------------------|---------------------0----|

----------------------------|----------------------------|

----------------------------|----------------------------|

----------------------------|----------------------------|

--2-2-2----2-2-2--2--2-2-2--|--2-2-2----2-2-2--2--2-2-2--|

----------------------------|--------------------------|

----------------------------|--------------------------|

--5-5-5----5-5-5--5--5-5-5--|--4-4-4----4-4-4--4-------|

----------------------------|---------------------0----|

----------------------------|----------------------------|

----------------------------|----------------------------|

----------------------------|----------------------------|

--2-2-2----2-2-2--2--2-2-2--|--2-2-2----2-2-2--2--2-2-2--|

----------------------------|--------------------------|

----------------------------|--------------------------|

--5-5-5----5-5-5--5--5-5-5--|--4-4-4----4-4-4--4-------|

----------------------------|---------------------0----|

----------------------------|----------------------------|

----------------------------|----------------------------|

----------------------------|----------------------------|

--2-2-2----2-2-2--2--2-2-2--|--2-2-2----2-2-2--2--2-2-2--|

----------------------------|--------------------------|

----------------------------|--------------------------|

--5-5-5----5-5-5--5--5-5-5--|--4-4-4----4-4-4--4-------|

----------------------------|---------------------0----|

--------------------------|--------------------------|

--------------------------|--------------------------|

--------------------------|--------------------------|

--2-2-2----2-2-2-2-2------|--2-2-2----2-2-2-2-2------|

--------------------------|--------------------------|

--0-0-0----0-0-0-0-0------|--------------------------|

--------------------------|--0-0-0----0-0-0-0-0------|

--------------------------|--------------------------|

--------------------------|--------------------------|

--------------------------|--------------------------|

--------------------------|--------------------------|

--2-2-2----2-2-2-2-2------|--2-2-2----2-2-2-2-2------|

--------------------------|--------------------------|

--0-0-0----0-0-0-0-0------|--------------------------|

--------------------------|--0-0-0----0-0-0-0-0------|

--------------------------|--------------------------|

|----------------------------|--------------------------||

|*---------------------------|-------------------------*||

|*----------------------0----|---------------0----2----*||

|---0-2--0-2--0-2--0-2-------|--0-2--0-2--0-------------||

----------------------------|-------------------------|

*---------------------------|-------------------------|

*----------------------2----|---------------2----4----|

---4-4--4-4--4-4--4-4-------|--4-4--4-4--4------------|

---------------------------|--------------------------||------------------|

---------------------------|-------------------------*||------------------|

----------------------2----|---------------2----4----*||------------------|

--4-4--4-4--4-4--4-4-------|--4-4--4-4--4-------------||------------------|

------------------|------------------|------------------|------------------|

------------------|------------------|------------------|------------------|

------------------|------------------|------------------|------------------|

------------------|------------------|------------------|------------------|

------------------|------------------|------------------|------------------|

------------------|------------------|------------------|------------------|

------------------|------------------|------------------|------------------|

------------------|------------------|------------------|------------------|

------------------|------------------|------------------|------------------|

------------------|------------------|------------------|------------------|

------------------|------------------|------------------|------------------|

------------------|------------------|------------------|------------------|

------------------|------------------|------------------|------------------|

------------------|------------------|------------------|------------------|

------------------|------------------|------------------|------------------|

------------------|------------------|------------------|------------------|

------------------|------------------|------------------|

------------------|------------------|------------------|

------------------|------------------|------------------|

------------------|------------------|------------------|

----------------------------|----------------------------|

----------------------------|----------------------------|

----------------------------|----------------------------|

--0-0-0----0-0-0--0--0-0-0--|--0-0-0----0-0-0--0--0-0-0--|

----------------------------|----------------------------|

----------------------------|----------------------------|

----------------------------|----------------------------|

--0-0-0----0-0-0--0--0-0-0--|--0-0-0----0-0-0--0--0-0-0--|

----------------------------|----------------------------|

----------------------------|----------------------------|

----------------------------|----------------------------|

--0-0-0----0-0-0--0--0-0-0--|--0-0-0----0-0-0--0--0-0-0--|

----------------------------|----------------------------|

----------------------------|----------------------------|

--0-0-0----0-0-0--0--0-0-0--|--0-0-0----0-0-0--0--0-0-0--|

----------------------------|----------------------------|

----------------------------|----------------------------|

----------------------------|----------------------------|

----------------------------|----------------------------|

--0-0-0----0-0-0--0--0-0-0--|--0-0-0----0-0-0--0--0-0-0--|

----------------------------|----------------------------|

----------------------------|----------------------------|

--4-4-4----4-4-4--4--4-4-4--|--4-4-4----4-4-4--4--2-2-2--|

----------------------------|----------------------------|

----------------------------|----------------------------|

----------------------------|----------------------------|

--0-0-0----0-0-0--0--0-0-0--|--0-0-0----0-0-0--0--2-2-2--|

----------------------------|----------------------------|

----------------------------|----------------------------|

----------------------------|----------------------------|

--4-4-4----4-4-4--4--4-4-4--|--4-4-4----4-4-4--4--2-2-2--|

----------------------------|----------------------------|

-----------------------------|------------------|------------------|

-----------------------------|------------------|------------------|

--0--------2--------4--------|------------------|------------------|

-----------------------------|------------------|------------------|

------------------|----------------------------|----------------------|

------------------|----------------------------|----------------------|

------------------|----------------------------|----------------------|

------------------|--0-0-0----0-0-0--0--0-0-0--|--0--0---0---0--------|

----------------------------|----------------------------|

----------------------------|----------------------------|

----------------------------|----------------------------|

--0-0-0----0-0-0--0--0-0-0--|--0-0-0----0-0-0--0--0-0-0--|

----------------------------|----------------------------|

----------------------------|----------------------------|

----------------------------|----------------------------|

--0-0-0----0-0-0--0--0-0-0--|--0-0-0----0-0-0--0--0-0-0--|

----------------------------|----------------------------|

----------------------------|----------------------------|

--4-4-4----4-4-4--4--4-4-4--|--4-4-4----4-4-4--4--4-4-4--|

----------------------------|----------------------------|

----------------------------|----------------------------|

----------------------------|----------------------------|

--0-0-0----0-0-0--0--0-0-0--|--0-0-0----0-0-0--0--0-0-0--|

----------------------------|----------------------------|

----------------------------|----------------------------|

----------------------------|----------------------------|

--4-4-4----4-4-4--4--4-4-4--|--4-4-4----4-4-4--4--4-4-4--|

----------------------------|----------------------------|

----------------------------|----------------------------|

----------------------------|----------------------------|

--0-0-0----0-0-0--0--0-0-0--|--0-0-0----0-0-0--0--0-0-0--|

----------------------------|----------------------------|

----------------------------|----------------------------|

----------------------------|----------------------------|

----------------------------|----------------------------|

--0-0-0----0-0-0--0--0-0-0--|--0-0-0----0-0-0--0--0-0-0--|

----------------------------|----------------------------|

----------------------------|----------------------------|

----------------------------|----------------------------|

--0-0-0----0-0-0--0--0-0-0--|--0-0-0----0-0-0--0--0-0-0--|

----------------------------|----------------------------|

----------------------------|----------------------------|

--4-4-4----4-4-4--4--4-4-4--|--4-4-4----4-4-4--4--4-4-4--|

----------------------------|----------------------------|

----------------------------|----------------------------|

----------------------------|----------------------------|

--0-0-0----0-0-0--0--0-0-0--|--0-0-0----0-0-0--0--0-0-0--|

----------------------------|----------------------------|

----------------------------|----------------------------|

----------------------------|----------------------------|

--4-4-4----4-4-4--4--4-4-4--|--4-4-4----4-4-4--4--4-4-4--|

----------------------------|----------------------------|

----------------------------|----------------------------|

----------------------------|----------------------------|

--0-0-0----0-0-0--0--0-0-0--|--0-0-0----0-0-0--0--0-0-0--|

----------------------------|----------------------------|

----------------------------|----------------------------|

----------------------------|----------------------------|

----------------------------|----------------------------|

--0-0-0----0-0-0--0--0-0-0--|--0-0-0----0-0-0--0--0-0-0--|

----------------------------|----------------------------|

----------------------------|----------------------------|

----------------------------|----------------------------|

--0-0-0----0-0-0--0--0-0-0--|--0-0-0----0-0-0--0--0-0-0--|

----------------------------|----------------------------|

----------------------------|----------------------------|

--4-4-4----4-4-4--4--4-4-4--|--4-4-4----4-4-4--4--4-4-4--|

----------------------------|----------------------------|

----------------------------|----------------------------|

----------------------------|----------------------------|

--0-0-0----0-0-0--0--0-0-0--|--0-0-0----0-0-0--0--0-0-0--|

----------------------------|----------------------------|

----------------------------|----------------------------|

----------------------------|----------------------------|

--4-4-4----4-4-4--4--4-4-4--|--4-4-4----4-4-4--4--4-4-4--|

----------------------------|----------------------------|

----------------------------|----------------------------||

----------------------------|----------------------------||

--0-0-0----0-0-0--0--0-0-0--|--0-0-0----0-0-0--0--0-0-0--||

----------------------------|----------------------------||

Taken from The BassMasta -- http://www.tabs-database.com

Get this song at:  amazon.com sheetmusicplus.com

Share your thoughts

0 Comments found