Nightwish

Nightwish - Over The Hills And Far Away bass tab

Band: Nightwish

Album: Over The Hills And Far Away

Song: Over The Hills And far Away

tabbed By: ClosedRoad

Tuning 4-string E A D G

Drums and keyboard.

Intro

G -------------------------------|

D -------------------------------|

A --------------------5555/7777--|

E -0-02-00-0-0-02-00-0-----------|

Verse

G -------------------------------------------------------|

D -------------------------------------------------------|

A ---------------------5(16x)--------------5(16x)-7(16x)-|

E -0(16x)-3(16x)-0(16x)-------0(16x)-3(16x)--------------|

Pre Chorus

G ------------------------------------|

D ------------------------------------|

A -3(16x)-5(16x)-3(16x)-5(8x)-2r---5--|

E ------------------------------------|

Chorus

G ------------------|

D ------------------|

A -----5-7-5---3-5--| 2x

E -0-3-------3------|

After Chorus

G -------------------|

D -------------------|

A -------------------|

E -0000000000003202--|

verse

Pre Chorus

Chorus 2x

After Chorus

G -------------------|

D -------------------|

A -------------5555--| Listen for perfect timing

E -0-00033-3333------|

Then ther's no Bass in this part Then:

Bridge

G --------------------------------|

D --------------------------------|

A --------------------------------| keep playing this for a long time

E -0-0000-0-0000-0-0000-00000000--|

Then for a lttle while again no bass Then:

Bridge II

G ----------------------------------|

D ----------------------------------|

A ----------------------------------|

E -0000---0---0-0000--0000-0253202--|

Guitar solo Play the verse 1x

Pre Chorus

Then the chorus but a bit higher

Chorus

G ------------------|

D ------------------|

A -----7-9-7---5-7--| keep playing this until the end

E -2-5-------5------| at the end fade out.

That's it I'am sure there are a couple of foulds in it.

But this is the way I play the song.

Have Fun and please rate it.

Greetings ClosedRoad

Taken from The BassMasta -- http://www.tabs-database.com

Get this song at:  amazon.com sheetmusicplus.com

Share your thoughts

0 Comments found