Nightwish

Nightwish - Nymphomaniac Fantasia guitar tab

Clean sound, sounds better with an acoustic guitar

e:-0-----0-----0-----0-----0-----0-----0---------------------------------------|

B:-0-----1-----0-----1-----1-----1-----0---------------------------------------|

G:-0-----2-----0-----2-----0-----2-----0---------------------------------------|

D:-2-----2-----2-----2-----2-----2-----2---------------------------------------|

A:-2-----0-----2-----0-----3-----0-----2---------------------------------------|

E:-0-----------0-----------------------0---------------------------------------|

e:-0-----0-----0-----0-----0-----0-----0-----2---------------------------------|

B:-0-----1-----0-----1-----1-----1-----0-----3---------------------------------|

G:-0-----2-----0-----2-----0-----2-----0-----2---------------------------------|

D:-2-----2-----2-----2-----2-----2-----2-----0---------------------------------|

A:-2-----0-----2-----0-----3-----0-----2---------------------------------------|

E:-0-----------0-----------------------0---------------------------------------|

e:-0-----0-----0-----0-----0-----0-----2---------------------------------------|

B:-0-----1-----0-----1-----1-----1-----0---------------------------------------|

G:-0-----2-----0-----2-----0-----2-----2---------------------------------------|

D:-2-----2-----2-----2-----2-----2-----0---------------------------------------|

A:-2-----0-----2-----0-----3-----0---------------------------------------------|

E:-0-----------0---------------------------------------------------------------|

1:22 Electric guitar with distortion

e:-----------------------------------------------------------------------------|

B:-----------------------------------------------------------------------------|

G:------------5----------7------------------------------7----------------------|

D:-2----------5----------7--------------3 TIMES THEN ---7---2------------------|

A:-2----------3-3-3...---5-5-5...-----------------------5---2------------------|

E:-0-0-0...-------------------------------------------------0------------------|

p.m. . . . . . . . . . . . . .

A second guitar play the chords

No guitar during the verses

2:24

e:-----------------------------------------------------------------------------|

B:-----------------------------------------------------------------------------|

G:-------------5----------7------------------------------7---2-----------------|

D:--2----------5----------7--------------2 TIMES THEN ---7---2-----------------|

A:--2----------3-3-3...---5-5-5...-----------------------5---0-----------------|

E:-/0-0-0...-------------------------------------------------------------------|

p.m. . . . . . . . . . . . . . .

4:01

e:-----------------------------------------------------------------------------|

B:-----------------------------------------------------------------------------|

G:-------2-----------2-----5-----2-----4---------------------------------------|

D:-2-----2-----2-----2-----5-----2-----4---------------------------------------|

A:-2-----0-----2-----0-0-2-3-----0-----2-2-2...--------------------------------|

E:-0-----------0---------------------------------------------------------------|

p.m. . .

e:-----------------------------------------------------------------------------|

B:-----------------------------------------------------------------------------|

G:----------2-----------------2--------5--------2-----------------7------------|

D:-2--------2--------2--------2--------5--------2--------2--------7----------2-|

A:-2--------0-0-0...-2--------0-0-0...-3-3-3...-0-0-0...-2--------5-5-5...---2-|

E:-0-0-0...----------0-0-0...----------------------------0-0-0...------------0-|

p.m. . . . . . . . . . . . . . . . . . . . . . . . . . . . . . . . . .

Get this song at:  amazon.com sheetmusicplus.com

Share your thoughts

0 Comments found