Nightwish

Nightwish - Nemo (complete) bass tab

Check the tuning, DGCF

F :----------------|----------------|----------------|----------------|

C :----------------|----------------|----------------|----------------|

G :----------------|----------------|----------------|----------------|

D :----------------|----------------|----------------|----------------|

F :----------------|----------------|----------------|----------------|

C :2-2-2-2-2-2-2-2-|2-2-2-2-2-2-2-2-|----------------|0-0-0-0-0-0-0-0-|

G :----------------|----------------|----------------|----------------|

D :----------------|----------------|3-3-3-3-3-3-3-3-|----------------|

F :----------------|----------------|----------------|----------------|

C :2-2-2-2-2-2-2-2-|2-2-2-2-2-2-2-2-|2-2-2-2-2-2-2-2-|2-2-2-2-2-2-2-2-|

G :----------------|----------------|----------------|----------------|

D :----------------|----------------|----------------|----------------|

F :----------------|----------------|2-2-2-2-2-2-2-2-|----------------|

C :2-2-2-2-2-2-2-2-|4-4-4-4-4-4-4-4-|----------------|0-0-0-0-0-0-0-0-|

G :----------------|----------------|----------------|----------------|

D :----------------|----------------|----------------|----------------|

F :----------------|----------------|----------------|----------------|

C :2-2-2-2-2-2-2-2-|2-2-2-2-2-2-2-2-|2-2-2-2-2-2-2-2-|2-2-2-2-2-2-2-2-|

G :----------------|----------------|----------------|----------------|

D :----------------|----------------|----------------|----------------|

F :2-2-2-2-2-2-0---|----------------|2-2-2-2-2-2-0---|----------------|

C :--------------4-|2-2-2-2-2-2-2-2-|--------------4-|0-0-0-0-0-0-0-0-|

G :----------------|----------------|----------------|----------------|

D :----------------|----------------|----------------|----------------|

F :----------------|----------------|----------------|----------------|

C :2-2-2---2-2-2---|2-2-2---2-2-2---|0-0-0---0-0-0---|0-0-0---0-0-0---|

G :----------------|----------------|----------------|----------------|

D :----------------|----------------|----------------|----------------|

F :----------------|----------------|0-0-0---0-0-0---|----------------|

C :2-2-2---2-2-2---|2-2-2---2-2-2---|----------------|0-0-0---0-0-0---|

G :----------------|----------------|----------------|----------------|

D :----------------|----------------|----------------|----------------|

F :------------------------|----------------|----------------|

C :------------------------|----------------|----------------|

G :7-----------------*-----|----------------|----------------|

D :------------------------|----------------|----------------|

F :----------------|----------------|----------------|2-2-2-2-2-2-2-2-|

C :----------------|2-2-2-2-2-2-2-2-|4-4-4-4-4-4-4-4-|----------------|

G :----------------|----------------|----------------|----------------|

D :----------------|----------------|----------------|----------------|

F :----------------|0-0-0-0-0-0-0-0-|0-0-0-0-0-0-0-0-|0-0-0-0-0-0-0-0-|

C :0-0-0-0-0-0-0-0-|----------------|----------------|----------------|

G :----------------|----------------|----------------|----------------|

D :----------------|----------------|----------------|----------------|

F :0-0-0-0-0-0-0-0-|----------------|0-0-0-0-0-0-0-0-|----------------|

C :----------------|----------------|----------------|----------------|

G :----------------|3-3-3-3-3-3-3-3-|----------------|3-3-3-3-3-3-3-3-|

D :----------------|----------------|----------------|----------------|

F :----------------|----------------|----------------|----------------|

C :3-3-3-3-3-3-3-3-|2-2-2---2-2-2---|2-2-2---2-2-2---|0-0-0---0-0-0---|

G :----------------|----------------|----------------|----------------|

D :----------------|----------------|----------------|----------------|

F :----------------|----------------|----------------|0-0-0---0-0-0---|

C :0-0-0---0-0-0---|2-2-2---2-2-2---|2-2-2---2-2-2---|----------------|

G :----------------|----------------|----------------|----------------|

D :----------------|----------------|----------------|----------------|

F :----------------|----------------|----------------|----------------|

C :0-0-0---0-0-0---|2---------------|2-*-2---2-------|0---------------|

G :----------------|----------------|----------------|----------------|

D :----------------|----------------|----------------|----------------|

F :----------------|----------------|----------------|----------------|

C :0-*-0-----------|2---------------|----------------|*---------------|

G :----------------|----------------|----------------|----------------|

D :----------------|----------------|----------------|----------------|

F :----------------|----------------|----------------|----------------|

C :----------------|----------------|----------------|----------------|

G :----------------|----------------|----------------|----------------|

D :----------------|----------------|----------------|----------------|

F :----------------|--------------------------|----------------|

C :----------------|--------------------------|----------------|

G :----------------|7/------------------------|----------------|

D :----------------|---------------------0-0-0|0*--------------|

F :--------------------------|----------------|----------------|

C :--------------------------|----------------|----------------|

G :7/------------------------|----------------|7---7-7-7---7---|

D :---------------------0-0-0|0*--------------|----------------|

F :-----------------|----------------|----------------|----------------|

C :-----------------|----------------|----------------|----------------|

G :7-7-7-7-9-10-9-5-|7---7-7-7---7---|7-7-7-7-7-7-7-7-|7---7-7-7---7---|

D :-----------------|----------------|----------------|----------------|

F :-----------------|----------------|----------------|----------------|

C :-----------------|----------------|----------------|----------------|

G :7-7-7-7-9-10-9-5-|7---7-7-7---7---|7-7-7-7-7---5---|7-7-7-7-7-7-7-7-|

D :-----------------|----------------|----------------|----------------|

F :----------------|----------------|----------------|----------------|

C :----------------|----------------|----------------|----------------|

G :7-7-7-7-7-7-7-7-|----------------|5-5-5-5-5-5-5-5-|7-7-7-7-7-7-7-7-|

D :----------------|3-3-3-3-3-3-3-3-|----------------|----------------|

F :----------------|----------------|----------------|----------------|

C :----------------|----------------|----------------|----------------|

G :7-7-7-7-7-7-7-7-|----------------|5-5-5-5-5-5-5-5-|----------------|

D :----------------|3-3-3-3-3-3-3-3-|----------------|3-3-3-3-3-3-3-3-|

F :----------------|----------------|----------------|----------------|

C :----------------|----------------|----------------|----------------|

G :----------------|----------------|----------------|----------------|

D :3-3-3-3-3-3-3-3-|3-3-3-3-3-3-3-3-|3-3-3-3-3-3-3-3-|3-3-3-3-3-3-3-3-|

F :----------------|----------------|----------------|----------------|

C :----------------|----------------|----------------|----------------|

G :----------------|----------------|6-------8-------|*---------------|

D :3-3-3-3-3-3-3-3-|3-3-3-3-3-3-3-3-|----------------|----------------|

F :----------------|----------------|----------------|----------------|

C :----------------|----------------|----------------|----------------|

G :----------------|----------------|----------------|----------------|

D :----------------|----------------|----------------|3-3-3---3-3-3---|

F :----------------|----------------|----------------|----------------|

C :----------------|----------------|----------------|----------------|

G :----------------|----------------|----------------|----------------|

D :3-3-3---3-3-3---|1-1-1---1-1-1---|1-1-1---1-1-1---|3-3-3---3-3-3---|

F :----------------|----------------|----------------|----------------|

C :----------------|----------------|----------------|----------------|

G :----------------|1-1-1---1-1-1---|----------------|----------------|

D :3-3-3---3-3-3---|----------------|1-1-1---1-1-1---|3-3-3---3-3-3---|

F :----------------|----------------|----------------|----------------|

C :----------------|----------------|----------------|----------------|

G :----------------|----------------|----------------|----------------|

D :3-3-3---3-3-3---|1-1-1---1-1-1---|1-1-1---1-1-1---|3-3-3---3-3-3---|

F :----------------|----------------|----------------|----------------|

C :----------------|----------------|----------------|----------------|

G :----------------|1-1-1---1-1-1---|----------------|----------------|

D :3-3-3---3-3-3---|----------------|1-1-1---1-1-1---|3-3-3---3-3-3---|

F :----------------|----------------|----------------|----------------|

C :----------------|----------------|----------------|----------------|

G :----------------|----------------|----------------|----------------|

D :3-3-3---3-3-3---|1-1-1---1-1-1---|1-1-1---1-1-1---|3-3-3---3-3-3---|

F :----------------|----------------|----------------|----------------|

C :----------------|----------------|----------------|----------------|

G :----------------|1-1-1---1-1-1---|----------------|----------------|

D :3-3-3---3-3-3---|----------------|1-1-1---1-1-1---|3-3-3---3-3-3---|

F :----------------|----------------|----------------|----------------|

C :----------------|----------------|----------------|----------------|

G :----------------|----------------|----------------|----------------|

D :3-3-3---3-3-3---|1-1-1---1-1-1---|1-1-1---1-1-1---|3-3-3---3-3-3---|

F :----------------|----------------|----------------|----------------|

C :----------------|----------------|----------------|----------------|

G :----------------|1-1-1---1-1-1---|----------------|----------------|

D :3-3-3---3-3-3---|----------------|1-1-1---1-1-1---|3-3-3---3-3-3---|

F :----------------|----------------|----------------|----------------|

C :----------------|----------------|----------------|----------------|

G :----------------|----------------|----------------|----------------|

D :3-3-3---3-3-3---|1-1-1---1-1-1---|1-1-1---1-1-1---|3-3-3---3-3-3---|

F :----------------|----------------|----------------|----------------|

C :----------------|----------------|----------------|----------------|

G :----------------|1-1-1---1-1-1---|----------------|----------------|

D :3-3-3---3-3-3---|----------------|1-1-1---1-1-1---|3--*------------|

Get this song at:  amazon.com sheetmusicplus.com

Share your thoughts

0 Comments found