Nightwish

Nightwish - Nemo bass tab

MY FAVOURITE SONG BY NIGH5TWISH

SATNDARD TUNING

E,A,D,G

PIANO INTRO

G-12-12-10-12----12-12-10-12---10-10-12--------------G

D-------------12------------10---------12-10-8---7-5-D

A----------------------------------------------7-----A

E----------------------------------------------------E

RIFF 1 AT THE START

G--------------------------------------------------G

D--------------------------------------------------D

A--------------------------------3-3-3-3-3-3-3-3-3-A

E-0-0-0-0-0-0-0-0-3-3-3-3-3-3-3-3------------------E

RIFF2 BIT AFTER FIRST BIT

G-----------------------------------------------------------------G

D-----------------------------------------------------------------D

A-----------------------------------------------------------------A

E-0-0-0-0-0-0-0-0-2-2-2-2-2-2-2-2-5-5-5-5-5-5-5-5-2-2-2-2-2-2-2-2-E

RIFF3

G-----------------G

D-----------------D

A-----------------A

E-0-0-0-0-0-0-0-0-E

RIFF4 "SLICE THE LUST ENDEVOUR"

G------------------------------------------------G

D------------------------------------------------D

A--------------------------------3-3-3-3-3-3-3-3-A

E-0-0-0-0-0-0-0-0-5-5-5-5-5-5-5-5----------------E

RIFF5

G------------------------------------------------G

D------------------------------------------------D

A----------------1-1-1-1-1-1-1-1-3-3-3-3-3-3-3-3-A

E-3-3-3-3-3-3-3-3--------------------------------E

RIFF6 4 BEATS "FLOWER" 3 BEATS IN BETWEEN EACH BIT

G-----------------G

D-----------------D

A-5---------------A

E---0-0-0-0-0-0-0-E

RIFF7

G--------------------------G---------------------G

D--------------------------D---------------------D

A------------------3-2-3---A-----------------4-6-A

E-0-0-0-0-0-0-0-0--------3-E-3-3-3-3-3-3-3-3-----E

RIFF8

G-------------------------------------------------G

D-------------------------------------------------D

A-10-10-10-10-10-10-10-10-------------------------A

E-------------------------11-11-11-11-11-11-11-11-E

G-----------------G

D-----------------D

A-3-3-3-3-3-3-3-3-A

E-----------------E

RIFF9

G---G

D---D

A---A

E-3-E

THATS ALL FOLKS

Get this song at:  amazon.com sheetmusicplus.com

Share your thoughts

0 Comments found