Nightwish

Nightwish - Nemo (4 String) bass tab

Intro

G|-------------------------------------|

D|-0000000000000000-33333333-----------|

A|---------------------------33333333--|

E|-------------------------------------|

Verse

G|--------------------------------------------|

D|-0(x32)0000000022222222-55555555------------|

A|---------------------------------333333333--|

E|--------------------------------------------|

G|--------------------------------------------|

D|-0(x32)5555555500000000-55555555------------|

A|---------------------------------333333333--|

E|--------------------------------------------|

Chorus

G|----------------------------------------------------------------------|

D|0000000000000000------------------0000000000000000-33333333-----------|

A|-----------------3333333333333333---------------------------33333333--|

E|----------------------------------------------------------------------|

Bridge

G|-------|------|--------------------------------------|

D|-------|------|00000000-33333333-55555555------------|

A|-11/3--|-REST-|---------------------------33333333---|

E|-------|------|--------------------------------------|

G|--------33333333--------33333333-----------|

D|-3(x32)---------33333333--------111111111--|

A|-------------------------------------------|

E|-------------------------------------------|

Chorus x1

After Chorus

G|---------------------------------|

D|-0----0-0-0------------------0~--|

A|---------------3----3-3-3--------|

E|---------------------------------|

REST

Bridge 2 (listen 4 it)

G|---------------|

D|-12/2----12/2--|

A|---------------|

E|---------------| then

G|-----------------------------------------------------------------|

D|-xxxx000000000000--353100000000-353100000000-00000000000000-3----|

A|---------------------------------------------------------------3-|

E|-----------------------------------------------------------------|

Intro x2

Interlude

G|-----------------------------------------|

D|-3(x32)-3333333333333333-33333333-----1--|

A|-----------------------------------4-----|

E|-----------------------------------------|

End

G|------------------------------------------------------11111111-----------|

D|-33333333333333333-1111111111111111-33333333333333333----------11111111--|

A|-------------------------------------------------------------------------|

E|-------------------------------------------------------------------------|x6

End Note

G|-----|

D|--3~-|

A|-----|

E|-----|

Get this song at:  amazon.com sheetmusicplus.com

Share your thoughts

0 Comments found