Nightwish

Nightwish - Moondance guitar tab

riff 1

|--------------------------------------------------------|

|--------------------------------------------------------|

|-2----------------------------------3---2------------2--|

|-2----------------------------------3---2----3----5--2--|

|-0--000-000-000-000-000--000-000-00-1---0----3----5--0--|

|---------------------------------------------1----3-----|

Flute solo transposted for guitar one octave down. If you

have a 24 fret guitar you can play it up in the normal range.

|------------------------------------------------|

|-------10~---8~---------------------------------|

|--9~--------------------------------------------|

|-----------------10~----10---12---14------------|

|---------------------------------------14~------|

|------------------------------------------------|

|------------------------------------------------------|

|-------------------------------------------10----10---|

|-12----14----10p9h10~--10-9-10--12-10--12-----12------|

|------------------------------------------------------|

|------------------------------------------------------|

|------------------------------------------------------|

|------------12~-------------------------------------------|

|--12-10-12--------10~----10--12--13~---12--13p12--10~-----|

|----------------------------------------------------------|

|----------------------------------------------------------|

|----------------------------------------------------------|

|----------------------------------------------------------|

|-----------------------------|

|-12~-------------------------|

|------12---------12---14~----|

|----------12~----------------|

|-----------------------------|

|-----------------------------|

riff 2 listen carefully to the timing..

|--------------------------------------------------|

|--------------------------------------------------|

|---2---2---2---2---2----5---5---5---5---5---5-----|

|--------------------------------------------------|

|-0---0---0---0---0----3---3---3---3---3---3-------|

|--------------------------------------------------|

|--------------------------------------------------|

|--------------------------------------------------|

|---7---7---7---7--7----------------2---2---2------|

|-----------------------5---5--5-------------------|

|-5---5---5---5---5---------------0---0---0--------|

|---------------------3---3---3--------------------|

riff 3

|------------------------------------------------------|

|------------------------------------------------------|

|---7---7---7---7---7---7----2---2---2---2---2---2-----|

|------------------------------------------------------|

|-5---5---5---5---5---5----0---0---0---0---0---0-------|

|------------------------------------------------------|

|-----------------------------------------|

|-----------------------------------------|

|---7---7---7---7---7---7----------5------|

|----------------------------3-----5------|

|-5---5---5---5---5---5------3-----3------|

|----------------------------1------------|

riff 3 ending

|-------------------------------------|

|-------------------------------------|

|---2---2---2---2---2---2---2---2-----|

|-------------------------------------|

|-0---0---0---0---0---0---0---0-------|

|-------------------------------------|

riff 4 Not surprisingly, this follows the same rhythm as riff 2

|-------------------------------|

|-------------------------------|

|--2-----5------7----------2----|

|--2-----5------7-----5----2----|

|--0-----3------5-----5----0----|

|---------------------3---------|

riff 5 Raise this riff a whole step and you've got the piano intro riff

and the main keyboard melody through the song.

|---------------------------------------------|

|---------------------------------------------|

|-----7----------7----------7--8--7--5--7~----|

|-5h7---5-5--5h7---5-5--5h7-------------------|

|---------------------------------------------|

|---------------------------------------------|

|---------------------------------------------|

|--------6------------------------------------|

|-7-8--8---8--7-8-7-5-7--------5--------------|

|------------------------5--8-----7-----5-----|

|------------------------------------8--------|

|---------------------------------------------|

Get this song at:  amazon.com sheetmusicplus.com

Share your thoughts

0 Comments found