Nightwish

Nightwish - Last Of The Wilds Intro guitar tab

Intro

Q=130

4/4

Gtr I

Q E E Q Q E E Q E E E E Q E E Q Q Q E E E E E E

|-----------------|----------8-12-10---|------------------|-------------------|

|-10--10-8-10-----|-10-8-10----------8-|-10--10-8-10------|-10--10-8-------8--|

|--------------9--|--------------------|------------------|----------9S7-9----|

|-----------------|--------------------|--------------10--|-------------------|

|-----------------|--------------------|------------------|-------------------|

|-----------------|--------------------|------------------|-------------------|

Gtr II

Q E E Q Q E E Q E E E E Q E E Q Q E E Q E E E E

|-----------------|----------8-12-10---|------------------|-------------------|

|-10--10-8-10-----|-10-8-10----------8-|-10--10-8-10------|-10-8-10--8--------|

|--------------9--|--------------------|------------------|------------10-9-7-|

|-----------------|--------------------|--------------10--|-------------------|

|-----------------|--------------------|------------------|-------------------|

|-----------------|--------------------|------------------|-------------------|

Q E E Q Q E E E E E E E E Q E E E E Q Q E E T T E +S Q

|--------------|-------------------|----------------|--------------------------|

|--------------|-------------------|----------------|--------------------------|

|-9--9-7-9-----|-9-7-9-7-9-10-9----|-9--9-7-9-------|--------------------------|

|-----------7--|----------------10-|----------7-----|-12--12-10-9h10p9-(9)-----|

|--------------|-------------------|------------10--|----------------------10--|

|--------------|-------------------|----------------|--------------------------|

E E E E Q Q E E Q E E E E Q E E Q Q E E Q E E E E

|------------------|----------8-12-10---|------------------|-------------------|

|-10-8-10-8-10-----|-10-8-10----------8-|-10--10-8-10------|-10-8-10--8--------|

|---------------9--|--------------------|------------------|------------10-9-7-|

|------------------|--------------------|--------------10--|-------------------|

|------------------|--------------------|------------------|-------------------|

|------------------|--------------------|------------------|-------------------|

Q E E Q Q E E E E E E E E E E Q Q E E Q Q Q Q

|--------------|-------------------|-------------------|---------------|

|--------------|-------------------|----8-10--10-----8-|-10--10--8--8--|

|-9--9-7-9-----|-9-7-9-7-9-10-9----|-10-----------10---|---------------|

|-----------7--|----------------10-|-------------------|---------------|

|--------------|-------------------|-------------------|---------------|

|--------------|-------------------|-------------------|---------------|

>

W +W +W +H +Q +Q

|-----------|-------------|-------------|---------------------|

|-10--------|-(10)--------|-(10)--------|-(10)----(10)--(10)--|

|-----------|-------------|-------------|---------------------|

|-----------|-------------|-------------|---------------------|

|-----------|-------------|-------------|---------------------|

|-----------|-------------|-------------|---------------------|

Verse1

Q Q Q E E Q E E E E E E

||-------17--17--15-17-|-----17-19-20-19-17----|

||o-/17----------------|-17-----------------17-|

||---------------------|-----------------------|

||---------------------|-----------------------|

||o--------------------|-----------------------|

||---------------------|-----------------------|

Q E E Q E E Q E E E E E E

|---------------------|----------------------|

|-15--15-17--------15-|-----------15-17-15---|

|-----------17--17----|--------17----------17|

|---------------------|-17--17---------------|

|---------------------|----------------------|

|---------------------|----------------------|

Q Q Q E E Q E E E E E E

|------17--17--15-17-|-----17-19-20-19-17----|

|--------------------|-17-----------------17-|

|-/14----------------|-----------------------|

|--------------------|-----------------------|

|--------------------|-----------------------|

|--------------------|-----------------------|

Q E E Q E E Q Q E E E E

|---------------------|----------------------||

|-15--15-17--------15-|-17--17--18-17-15----o||

|-----------17--17----|------------------17--||

|---------------------|----------------------||

|---------------------|---------------------o||

|---------------------|----------------------||

Chorus

Q E E Q Q E E Q E E E E Q E E Q Q E E Q E E E E

|-----------------|----------8-12-10---|------------------|-------------------|

|-10--10-8-10-----|-10-8-10----------8-|-10--10-8-10------|-10-8-10--8--------|

|--------------9--|--------------------|------------------|------------10-9-7-|

|-----------------|--------------------|--------------10--|-------------------|

|-----------------|--------------------|------------------|-------------------|

|-----------------|--------------------|------------------|-------------------|

Q E E Q Q E E E E E E E E

|--------------|-------------------|

|--------------|-------------------|

|-9--9-7-9-----|-9-7-9-7-9-10-9----|

|-----------7--|----------------10-|

|--------------|-------------------|

|--------------|-------------------|

Q E E E E E E Q E E T T E +S Q

|------------------|--------------------------|

|------------------|--------------------------|

|-9--9-7-9-10-9----|--------------------------|

|---------------10-|-12--12-10-9h10p9-(9)-----|

|------------------|----------------------10--|

|------------------|--------------------------|

Get this song at:  amazon.com sheetmusicplus.com

Share your thoughts

0 Comments found