Nightwish

Nightwish - Lappi guitar tab

NIGHTWISH – "Lappi (Lapland)"

Part I – "Erämaajärvi"

From the album "Angels Fall First"

Transcribed to Guitar and Keyboard

Transcribed by Jawor Iwanow

Tempo=126

Standard tuning: e-B-G-D-A-E

1st Guitar

e:-----------------------------------|

B:--8---8-7--------------------------|

G:*---------9-----------------------*|

D:*---------------------------------*|

A:-----------------------------------|

E:-----------------------------------|

|2nd Guitar |

e:----------------7-7---7-5----------|

B:--------------------------8--------|

G:*---------------------------------*|

D:*---------------------------------*|

A:-----------------------------------|

E:-----------------------------------|

|3rd Guitar |

e:--0---0-0-0---0-0-0---0-0-0---0-0--|

B:--0---0-0-0---0-0-0---0-0-0---0-0--|

G:*-0---0-0-0---0-0-0---0-0-0---0-0-*|

D:*-2---2-2-2---2-2-2---2-2-2---2-2-*|

A:--2---2-2-2---2-2-2---2-2-2---2-2--|

E:--0---0-0-0---0-0-0---0-0-0---0-0--|

(0:07)

1st Guitar

e:--------------------------------------------------------7-7--------|

B:--8---8-7-------------------------8---8-7-------8-7---7------------|

G:----------9-----7-9---9-7-----------------9------------------------|

D:--------------------------9p7h9------------------------------------|

A:-------------------------------------------------------------------|

E:-------------------------------------------------------------------|

|2nd Guitar |

e:----------------7-7---7-5-------------------5-7--------------------|

B:--------------------------8-----7-8---8-7-8-------7---7-8-8--------|

G:-------------------------------------------------------------------|

D:-------------------------------------------------------------------|

A:-------------------------------------------------------------------|

E:-------------------------------------------------------------------|

|3rd Guitar |

e:--0---0-0-0---0-0-0---0-0-0---0-0-0---0-0-0---0-2-2---2-3-3---3-0--|

B:--0---0-0-0---0-0-0---0-0-0---0-0-0---0-0-0---0-3-3---3-0-0---0-0--|

G:--0---0-0-0---0-0-0---0-0-0---0-0-0---0-0-0---0-2-2---2-0-0---0-0--|

D:--2---2-2-2---2-2-2---2-2-2---2-2-2---2-2-2---2-0-0---0-0-0---0-2--|

A:--2---2-2-2---2-2-2---2-2-2---2-2-2---2-2-2---2-----------------2--|

E:--0---0-0-0---0-0-0---0-0-0---0-0-0---0-0-0---0-----------------0--|

1st Guitar

e:--------------------------------------------------------7-7--------|

B:--8---8-7-------------------------8---8-7-------8/7---7------------|

G:----------9-----7-9---9-7-----------------9------------------------|

D:--------------------------9p7h9------------------------------------|

A:-------------------------------------------------------------------|

E:-------------------------------------------------------------------|

|2nd Guitar |

e:--7---7-5-------------------5-7---7---7-5--------------------------|

B:----------8-----7-8---8-7-8---------------8-----7-7h8-7-8-8--------|

G:-------------------------------------------------------------------|

D:-------------------------------------------------------------------|

A:-------------------------------------------------------------------|

E:-------------------------------------------------------------------|

|3rd Guitar |

e:--0---0-0-0---0-0-0---0-0-0---0-0-0---0-0-0---0-2-2---2-3-3---3-0--|

B:--0---0-0-0---0-0-0---0-0-0---0-0-0---0-0-0---0-3-3---3-0-0---0-0--|

G:--0---0-0-0---0-0-0---0-0-0---0-0-0---0-0-0---0-2-2---2-0-0---0-0--|

D:--2---2-2-2---2-2-2---2-2-2---2-2-2---2-2-2---2-0-0---0-0-0---0-2--|

A:--2---2-2-2---2-2-2---2-2-2---2-2-2---2-2-2---2-----------------2--|

E:--0---0-0-0---0-0-0---0-0-0---0-0-0---0-0-0---0-----------------0--|

(0:23)

Guitar

e:--0---0-0-0-0-0-----0-0-0-0---0---0-0-0-0-0---1---1-3-3----|

B:--1---1-1-1-0-0-----1-1-0-0---1---1-1-1-0-0---3---3-0-0----|

G:*-2---2-2-2-0-0-----2-2-0-0---2---2-2-2-0-0---2---2-0-0---*|

D:*-2---2-2-2-2-2-----2-2-2-2---2---2-2-2-2-2---0---0-0-0---*|

A:--0---0-0-0-2-2-----0-0-2-2---0---0-0-0-2-2----------------|

E:--0---0-0-0-0-0-----0-0-0-0---0---0-0-0-0-0----------------|

(0:36)

1st Guitar

e:--------------------------------------------------------7-7--------|

B:--8---8-7-------------------------8---8-7-------8/7---7------------|

G:*---------9-----7-9---9-7-----------------9-----------------------*|

D:*-------------------------9p7h9-----------------------------------*|

A:-------------------------------------------------------------------|

E:-------------------------------------------------------------------|

|2nd Guitar |

e:--7---7-5-------------------5-7---7---7-5----------===-------------|

B:----------8-----7-8---8-7-8---------------8-----7-7h8p7h8-8--------|

G:*--------------------------------------------------===------------*|

D:*----------------------------------------------only-2nd-time------*|

A:-------------------------------------------------------------------|

E:-------------------------------------------------------------------|

|3rd Guitar |

e:--0---0-0-0---0-0-0---0-0-0---0-0-0---0-0-0---0-2-2---2-3-3---3-0--|

B:--0---0-0-0---0-0-0---0-0-0---0-0-0---0-0-0---0-3-3---3-0-0---0-0--|

G:*-0---0-0-0---0-0-0---0-0-0---0-0-0---0-0-0---0-2-2---2-0-0---0-0-*|

D:*-2---2-2-2---2-2-2---2-2-2---2-2-2---2-2-2---2-0-0---0-0-0---0-2-*|

A:--2---2-2-2---2-2-2---2-2-2---2-2-2---2-2-2---2-----------------2--|

E:--0---0-0-0---0-0-0---0-0-0---0-0-0---0-0-0---0-----------------0--|

(0:51)

Guitar

e:--0---0-0-0-0-0-----0-0-0-0---0---0-0-0-0-0---1---1-3-3----|

B:--1---1-1-1-0-0-----1-1-0-0---1---1-1-1-0-0---3---3-0-0----|

G:*-2---2-2-2-0-0-----2-2-0-0---2---2-2-2-0-0---2---2-0-0---*|

D:*-2---2-2-2-2-2-----2-2-2-2---2---2-2-2-2-2---0---0-0-0---*|

A:--0---0-0-0-2-2-----0-0-2-2---0---0-0-0-2-2----------------|

E:--0---0-0-0-0-0-----0-0-0-0---0---0-0-0-0-0----------------|

(1:05)

Flute (and vocals)

e:---------0-----3-3-3-2---0-------5---5---5---8-8-7---5---3---2---|

B:-----------------------------3-----------------------------------|

G:-----------------------------------------------------------------|

D:-----------------------------------------------------------------|

A:-----------------------------------------------------------------|

E:-----------------------------------------------------------------|

|Guitar |

e:-0---0-0-0---0-0-2---2-2-2---2-2-2---2-2-2---2-2-3-------2-------|

B:-0---0-0-0---0-0-3---3-3-3---3-3-1---1-1-1---1-1-0-------3-------|

G:-0---0-0-0---0-0-2---2-2-2---2-2-2---2-2-2---2-2-0-------2-------|

D:-2---2-2-2---2-2-0---0-0-0---0-0-1---1-1-1---1-1-0-------0-------|

A:-2---2-2-2---2-2-------------------------------------------------|

E:-0---0-0-0---0-0-------------------------------------------------|

e:-0---0-0-0---3-3-3---------------8-8---8-7---3---5---------------|

B:---------------------3---0---3-----------------------------------|

G:-----------------------------------------------------------------|

D:-----------------------------------------------------------------|

A:-----------------------------------------------------------------|

E:-----------------------------------------------------------------|

|Guitar |

e:-0---0-0-0---0-0-3---3-3-3---3-3-0---0-0-0---0-0-2---2-2-2---2-2-|

B:-1---1-1-1---1-1-0---0-0-0---0-0-1---1-1-1---1-1-3---3-3-3---3-3-|

G:-0---0-0-0---0-0-0---0-0-0---0-0-2---2-2-2---2-2-2---2-2-2---2-2-|

D:-2---2-2-2---2-2-0---0-0-0---0-0-2---2-2-2---2-2-0---0-0-0---0-0-|

A:-3---3-3-3---3-3-----------------0---0-0-0---0-0-----------------|

E:---------------------------------0---0-0-0---0-0-----------------|

(1:20)

e:-----0-------3---3---2---0-------5---5---5---8-8-7---5-5-3---2-0-|

B:-----------------------------3-----------------------------------|

G:-----------------------------------------------------------------|

D:-----------------------------------------------------------------|

A:-----------------------------------------------------------------|

E:-----------------------------------------------------------------|

|Guitar |

e:-0---0-0-0---0-0-2---2-2-2---2-2-2---2-2-2---2-2-3-------2-------|

B:-0---0-0-0---0-0-3---3-3-3---3-3-1---1-1-1---1-1-0-------3-------|

G:-0---0-0-0---0-0-2---2-2-2---2-2-2---2-2-2---2-2-0-------2-------|

D:-2---2-2-2---2-2-0---0-0-0---0-0-1---1-1-1---1-1-0-------0-------|

A:-2---2-2-2---2-2-------------------------------------------------|

E:-0---0-0-0---0-0-------------------------------------------------|

e:-----0-0-0---3-3-3---------------8-----8-7---3---5---------------|

B:---------------------3-0---0-3-----------------------------------|

G:-----------------------------------------------------------------|

D:-----------------------------------------------------------------|

A:-----------------------------------------------------------------|

E:-----------------------------------------------------------------|

|Guitar |

e:-0---0-0-0---0-0-3---3-3-3---3-3-0---0-0-0---0-0-2---2-2---2-2-2-|

B:-1---1-1-1---1-1-0---0-0-0---0-0-1---1-1-1---1-1-3---3-3---3-3-3-|

G:-0---0-0-0---0-0-0---0-0-0---0-0-2---2-2-2---2-2-2---2-2---2-2-2-|

D:-2---2-2-2---2-2-0---0-0-0---0-0-2---2-2-2---2-2-0---0-0---0-0-0-|

A:-3---3-3-3---3-3-----------------0---0-0-0---0-0-----------------|

E:---------------------------------0---0-0-0---0-0-----------------|

Guitar

e:---2-2-2---2-2-2-0-|

B:---3-3-3---3-3-3-0-|

G:---2-2-2---2-2-2-0-|

D:---0-0-0---0-0-0-2-|

A:-----------------2-|

E:-----------------0-|

(1:37)

e:--------------------------------------------------------7-7--------|

B:--8---8-7-------------------------8---8-7-------8-7---7------------|

G:*---------9-----7-9---9-7-----------------9-----------------------*|

D:*-------------------------9p7h9-----------------------------------*|

A:-------------------------------------------------------------------|

E:-------------------------------------------------------------------|

|2nd Guitar |

e:----------------7-7---7-5-------------------5-7--------------------|

B:--------------------------8-----7-8---8-7-8-------7---7-8-8--------|

G:*-----------------------------------------------------------------*|

D:*-----------------------------------------------------------------*|

A:-------------------------------------------------------------------|

E:-------------------------------------------------------------------|

|3rd Guitar |

e:--0---0-0-0---0-0-0---0-0-0---0-0-3---3-3-3---3-3-2---2-3-3---3-0--|

B:--0---0-0-0---0-0-0---0-0-0---0-0-0---0-0-0---0-0-3---3-0-0---0-0--|

G:*-0---0-0-0---0-0-0---0-0-0---0-0-0---0-0-0---0-0-2---2-0-0---0-0-*|

D:*-2---2-2-2---2-2-2---2-2-2---2-2-0---0-0-0---0-0-0---0-2-2---2-2-*|

A:--2---2-2-2---2-2-2---2-2-2---2-2-2---2-2-2---2-2---------------2--|

E:--0---0-0-0---0-0-0---0-0-0---0-0-3---3-3-3---3-3---------------0--|

1st Guitar

e:--------------------------------------------------------7-7--------|

B:--8---8-7-------------------------8---8-7-------8/7---7------------|

G:*---------9-----7-9---9-7-----------------9-----------------------*|

D:*-------------------------9p7h9-----------------------------------*|

A:-------------------------------------------------------------------|

E:-------------------------------------------------------------------|

|2nd Guitar |

e:--7---7-5-------------------5-7---7---7-5--------------------------|

B:----------8-----7-8---8-7-8---------------8-----7-7h8p7h8-8--------|

G:*-----------------------------------------------------------------*|

D:*-----------------------------------------------------------------*|

A:-------------------------------------------------------------------|

E:-------------------------------------------------------------------|

|3rd Guitar |

e:--0---0-0-0---0-0-0---0-0-0---0-0-3---3-3-3---3-3-2---2-3-3---3-0--|

B:--0---0-0-0---0-0-0---0-0-0---0-0-0---0-0-0---0-0-3---3-0-0---0-0--|

G:*-0---0-0-0---0-0-0---0-0-0---0-0-0---0-0-0---0-0-2---2-0-0---0-0-*|

D:*-2---2-2-2---2-2-2---2-2-2---2-2-0---0-0-0---0-0-0---0-2-2---2-2-*|

A:--2---2-2-2---2-2-2---2-2-2---2-2-2---2-2-2---2-2---------------2--|

E:--0---0-0-0---0-0-0---0-0-0---0-0-3---3-3-3---3-3---------------0--|

Guitar

e:--0--||

B:--0--||

G:--0--||

D:--2--||

A:--2--||

E:--0--||

[The End - (2:15)]

Added by tabs-database.com and our distinguished partners

Get this song at:  amazon.com sheetmusicplus.com

Share your thoughts

0 Comments found