Nightwish

Nightwish - Know Why The Nightingale Sings guitar tab

Song: Know Why The Nightingale Sings

Artist: Nightwish

Album: Angels Fall First

* = Palm Muted

Intro

0:00

e---------------------------------------------------------------------------

b---------------------------------------------------------------------------

g-9---7----9------9---7----9------------------------------------------------ x3

d-9---7----9------9---7----9------10---10-----10---9---------5-4---------

a-7-0-5-0--7-0-0--7-0-5-0--7-0-0--10---10-----10---9----------------------

e----------------------------------8-0--8-0-0--8-0-7-5-7-8--------------

* * * * * * * * * * * *

e-------------------------------------------------------------------------------

b-------------------------------------------------------------------------------

g-9---7----9------9---7----9-------------------------------12-11-9---

d-9---7----9------9---7----9------10---10-----10---9----------------------

a-7-0-5-0--7-0-0--7-0-5-0--7-0-0--10---10-----10---9----------------------

e----------------------------------8-0--8-0-0--8-0-7-5-7-8--------------

* * * * * * * * * * * *

Verse

0:29

e----------------------------------------

b----------------------------------------

g---------------------5-7-9------------

d-\\-\\-2------5-7------5-7-9------------ x2

a-\\-\\-2------5-7------3-5-7------------

e-\\-\\-0-0-2--3-5-5-7--------------------

* * * *

0:54 Repeat both intro parts ONCE each

1:08 Repeat Verse x 2

Chorus

1:32

e-------------------------------------------------------------------------

b-------------------------------------------------------------------------

g------9------9------9------9------9------5------5---5----5---------- x4

d------9------9------9------9------9------5------5---5----5---4-2----

a-7-7--7-7-7--7-7-7--7-7-7--7-7-7--7-3-3--3-3-3--3-3-3-3--3-2-----3--

e--------------------------------------------------------------------------

* * * * * * * * * * * * * * * *

e----------------------------------------------------------------------------

b----------------------------------------------------------------------------

g------7------7------7------7------7------8------8---8----8-------------- x4

d------7------7------7------7------7------8------8---8----8---7-5-------

a-5-5--5-5-5--5-5-5--5-5-5--5-5-5--5-6-6--6-6-6--6-6-6-6--6-5-----6-----

e----------------------------------------------------------------------------

* * * * * * * * * * * * * * * *

The Solo was taken from a tab from another website, full credit goes to bjandor@hotmail.com

It isn’t completely accurate, and like him, I haven’t been able to figure out the rest.

1st GUITAR SOLO (2:24)

e:-----------------------------------------------------------------------------|

B:-----------------------------------------------------------------------------|

G:-15-14-12--------------------------------------------------------------------|

D:----------15-13-12--------------12-------------------------------------------|

A:-------------------12-13--13-15----10*---------------------------------------|

E:-----------------------------------------------------------------------------|

i don't know what he do here with the right hand but this are the notes = ()

and where is too fast for me = []

e:-----------------------------------------------------------------------------|

B:-----------------------------------------------------------------------------|

G:-----------------------------------------------------------------------------|

D:------------------------------15-13-12-[12,9,10,12,10,9]/17-[19,17,16]-------|

A:-(12-13----15-13-12)---------------------------------------------------------|

E:-------13------------13-15-17------------------------------------------------|

e:-----------------------------------------------------------------------------|

B:-----------------------------------------------------------------------------|

G:----------12-------12-14-15--15-14-12-10-------------------------------------|

D:-13-12-------15-13-----------------------------------------------------------|

A:-------13--------------------------------------------------------------------|

E:-----------------------------------------------------------------------------|

(2:50)

here is where tarja do she hu, hu, hu... (u know...)

e:-----------------------------------------------------------------------------|

B:-----------------------------------------------------------------------------|

G:-12-14-15-17-15-15-14-15-12--19-19-19-17-15-17-15-14-------------------------|

D:-----------------------------------------------------------------------------|

A:-----------------------------------------------------------------------------|

E:-----------------------------------------------------------------------------|

e:-----------------------------------------------------------------------------|

B:-----------------------------------------------------------------------------|

G:-12-14-15-17-15-15-14-15-20--22/24-22-20-19-17-------------------------------|

D:-----------------------------------------------------------------------------|

A:-----------------------------------------------------------------------------|

E:-----------------------------------------------------------------------------|

Get this song at:  amazon.com sheetmusicplus.com

Share your thoughts

0 Comments found