Nightwish

Nightwish - Islander guitar tab

Please make this better. Something right, but a lot missing.

Listening this song makes me wonder about how great Nightwish

could be only with a male singer.

Terveisiä keski-Suomesta JK!

verse:

e|-2-------------2------------2--------------------0----------3------------|

h|-3-------------2------------3--------------------2----------3------------|

g|-4-------------4------------4--------------------2----------0------------|

d|-4-------------4------------5--------------------2----------0------------|

a|-2-------------2------------2--------------------0----------2------------|

E|------------------------------------------------------------3------------|

An old man by a seashore at the end of day gazes the horizon with

Tempest-tossed island ,seasons all the same ,anchorage unpainted

e|-0---------------2------------|

h|-2---------------3------------|

g|-2---------------4------------|

d|-2---------------4------------|

a|-0---------------2------------|

E|------------------------------|

seawinds in his face.

and a ship without a name.

chorus:

e|-2-----------2----2--0--2------2-----------------2----------0-----2-----|

h|-3-----------2----3--2--3------2-----------------3----------0-----3-----|

g|-4-----------0----2--2--4------0-----------------2----------0-----4-----|

d|-4-----------0----0--2--4------0-----------------0----------2-----4-----|

a|-2-----------3----0--0--2------3-----------------0----------2-----2-----|

E|-------------2-----------------2----------------------------0-----------|

This is for long-forgotten light at the end of the world.

Horizon crying the tears he left behind long ago.

Get this song at:  amazon.com sheetmusicplus.com

Share your thoughts

0 Comments found