Nightwish

Nightwish - I Wish I Had A Angel bass tab

Standard Tune

Intro

G|------------------------------------------------------------------|

D|------------------------------------------------------------------|

A|-------0-22-0-22--------0-22-------------0-22-0-22-02-----2-------|

E|-0-1-0------------0-1-0------0310--0-1-0-------------03311-044331-|

Verse

G|------------------------------------------------------------------------|

D|------------------------------------------------------------------------|

A|-----------------------------------53---0h2-0h2-0h2-0h2------3----------|

E|-0000---77777770000---77777770310-3---2-----------------0310---2----2-2-|

Chorus FILL

G|------------------------------------------------------|------------|

D|------------------------------------------------------|------------|

A|--------3333-----5---------------------------33335555-|-------0-22-|

E|-0000----------3---0000----22----33----55-------------|-0-1-0------|

Verse

Chorus

Bridge

G|---------------------------------------------------------------------|

D|---------------------------------------------------------------------|

A|-----00-0-22-----------------0000000--00000003300000000--0-0-0-00--3-|

E|-0010---------000-111-1-321---------01-----------------01--------11--|

G|------------------------------------------------------------------|

D|------------------------------------------------------------------|

A|-------------------------------0---------------1----------------0-|

E|-0-000000-0-0-0-0-0-0-00013-013---0-000000-0-0---0-00001-3-01034--|

G|---------------------------------------------------------------|

D|---------------------------------------------------------------|

A|-0-0-000-0-0--0-0-0-0-0-0-011-0---0--0-0--0--0-----------------|

E|------------01------------------00--0----0-------0-0-0-0-00----|

Chorus

Intro

Outro

G|-----------------|

D|-----------------|

A|-------0-22-0-22-|

E|-0-1-0-----------|

A Very Good Song

Get this song at:  amazon.com sheetmusicplus.com

Share your thoughts

0 Comments found