Nightwish

Nightwish - High Hopes Live guitar tab

Nightwish - High Hopes

Tuning – D (DGCFAD)

This is as Emppu plays High Hopes on the new Nightwish - End of An Era DVD and is near perfect.

Chorus 1:26

D-------------|-------------|-------------|---------------|

A-------------|-------------|-------------|---------------|

F---4-----5-7-|-------2-4-5-|---4-----5-7-|-------2-4-----|

C-2-4-----5-7-|-2-4-5-2-4-5-|-2-4-----5-7-|-2-4-5-2-4-----|

G-2-2-0-2-3-5-|-2-4-5-0-2-3-|-2-2-0-2-3-5-|-2-4-5-0-2-/7~~|

D-0-----------|-0-2-3-------|-0-----------|-0-2-3---------|

PM. PM.

Pre-Chorus 2:14

D----------------|------------------------|

A----------------|------------------------|

F----------------|------------------------|

C----------------|---------7--------------|

G-/10~-9-7-9-7-6-|-10-9-10---7-9-7-6------|

D----------------|------------------------|

PM. PM.

Solo 1 2:26

D-------------------------------|----------------------|

A-------------------------------|----------------------|

F-----------------------------8-|--8h9-9-8h9p8---------|

C-------------8----8-9-8-9-11---|---------------11-9---|

G-/11-11-9-11---11--------------|----------------------|

D-------------------------------|----------------------|

PM.. PM..

D--------------------------------------------------|

A--------------------------------------------------|

F-----------------------------8-8h9-9/11\\9---------|

C-------------8----8-9-8-9-11----------------------|

G-/11-11-9-11---11---------------------------------|

D-------------------------------------------11\\----|

PM.. PM..

D--------------------------9-11-11h12-12-11-9h11p9------|

A-/9-9h11-11-9h11/12-11-12-------------------------12---|

F-------------------------------------------------------|

C-------------------------------------------------------|

G-------------------------------------------------------|

D-------------------------------------------------------|

D-------------------------9-11-11/12~-12/14-14-14\\-------|

A-9----9-11-9-11/12-11-12--------------------------------|

F---11---------------------------------------------------|

C--------------------------------------------------------|

G--------------------------------------------------------|

D--------------------------------------------------------|

Chorus 3:49

D--------------------------------------------------------|

A--------------------------------------------------------|

F---4-----5-7-------2-4-5---4-----5-7-------2-4-5--------|

C-2-4-----5-7-2-4-5-2-4-5-2-4-----5-7-2-4-5-2-4-5--------|

G-2-2-0-2-3-5-2-4-5-0-2-3-2-2-0-2-3-5-2-4-5-0-2-3--------|

D-0-----------0-2-3-------0-----------0-2-3--------------|

PM. PM.

D--------------------------------------------------------|

A--------------------------------------------------------|

F---4-----5-7-------2-4-5---4-----5-7-------2-4-5--------|

C-2-4-----5-7-2-4-5-2-4-5-2-4-----5-7-2-4-5-2-4-5--------|

G-2-2-0-2-3-5-2-4-5-0-2-3-2-2-0-2-3-5-2-4-5-0-2-3--------|

D-0-----------0-2-3-------0-----------0-2-3--------------|

PM. PM.

Solo 2 4:39

D--------------------------------------------------------|

A--------------------------------------------------------|

F-----14-16~-19-16~-16-17-19-19-17-16-17-----------------|

C-/17------------------------------------17-16-17--------|

G--------------------------------------------------------|

D--------------------------------------------------------|

D--------------------------------------------------------|

A--------------------------------------------------------|

F--------------------------------------------------------|

C-16-------------------------14-14-12-12-----------------|

G----17-17-17-17-14-14-14-14-----------------------------|

D--------------------------------------------------------|

PM...... PM.........

D-----------------------------------------------------|

A-20-20-20-15h20p15----17-------20-20-------22-22-----|

F-------------------16----16-19-------19-19-------19--|

C-----------------------------------------------------|

G-----------------------------------------------------|

D-----------------------------------------------------|

D--------------------------------------------------------|

A----20-20-15h20p15----17----19-19b20b19-17p15-----------|

F-16----------------16----16-------------------16p14\\12--|

C--------------------------------------------------------|

G--------------------------------------------------------|

D--------------------------------------------------------|

D-------------------------------|

A-------------------------------|

F-/9-/7-/5-/4-/2-4-5------------|

C-------------------------------|

G-------------------------------|

D-------------------------------|

Solo 3 4:59

T T T T

D---------------------------------------------------------|

A-20p15p12h15-20\\17p15p12h15-17/19p15p12------------------|

F----------------------------------------h14-19\\16p14p12--|

C---------------------------------------------------------|

G---------------------------------------------------------|

D---------------------------------------------------------|

T T T T

D---------------------------------------------------------|

A---------------------------------------------------------|

F---------------------------------------------------------|

C-h14-17/19p12-h14-17/19p12-h12-17/19p12-h14-17/19p12-----|

G---------------------------------------------------------|

D---------------------------------------------------------|

T T T T T T T T

D---------------------------------------------------------|

A-20-20p15p12-19-19p15p12-20-20p15p12-19-19p15p12---------|

F---------------------------------------------------------|

C---------------------------------------------------------|

G---------------------------------------------------------|

D---------------------------------------------------------|

T T T T T T T T

D-17-17p15p12--------------------------------------|

A-------------20-20p15p12--17-17p15p12-15p12-15p12-|

F--------------------------------------------------|

C--------------------------------------------------|

G--------------------------------------------------|

D--------------------------------------------------|

T T T T T T T T

D-----------------------------------------------|

A-----------------------------------------------|

F-14p12-14p12-----------------------------------|

C-------------14p10-14p10-12p9-12p9-9h12h14-----|

G-----------------------------------------------|

D-----------------------------------------------|

D-------------------------------------17-17-15--------|

A-17-17-15-15-20-20\\------20-15-15-15-----------------|

F-16-16-14-14-19-19\\\\--//-----------------------------|

C-------------------\\\\//------------------------------|

G-----------------------------------------------------|

D-----------------------------------------------------|

D----------------------------------------------------|

A-15h20-20p15------20----------------20-----20-------|

F-------------16~~----16~~-17-19-19b----19b-----19~~-|

C----------------------------------------------------|

G----------------------------------------------------|

D----------------------------------------------------|

D------------------------------------------------------|

A------------------------------------------------------|

F---4-4-5-7-------2-4-5---4-----5-7-------2-4-5--------|

C-2-4-4-5-7-2-4-5-2-4-5-2-4-----5-7-2-4-5-2-4-5--------|

G-2-2-2-3-5-2-4-5-0-2-3-2-2-0-2-3-5-2-4-5-0-2-3--------|

D-0---------0-2-3-------0-----------0-2-3--------------|

PM.

D------------------------------------------------------|

A------------------------------------------------------|

F---4-4-5-7-------2-4-5---4-----5-7-------2-4-5--------|

C-2-4-4-5-7-2-4-5-2-4-5-2-4-----5-7-2-4-5-2-4-5--------|

G-2-2-2-3-5-2-4-5-0-2-3-2-2-0-2-3-5-2-4-5-0-2-3-/7~~~~-|

D-0---------0-2-3-------0-----------0-2-3--------------|

PM.

Ends

Added by tabs-database.com and our distinguished partners

Get this song at:  amazon.com sheetmusicplus.com

Share your thoughts

0 Comments found