Nightwish

Nightwish - Ghost Love Score(complete) bass tab

Bass enters around forty seconds listen to the song.

G :----------------|----------------|-------------|--------------------|

D :----------------|----------------|-------------|--------------------|

A :----------------|----------------|-------------|--------------------|

E :----------------|----------------|-------------|--------1-1-1-1-*---|

B :----------------|----------------|-------------|--------------------|

G :----------------|----------------|------------|----------------|

D :----------------|----------------|------------|----------------|

A :----------------|----------------|1---1---1---|3---3---3---0---|

E :----------------|--------1---0---|------------|----------------|

B :3---3---3---3---|3---3-----------|------------|----------------|

G :----------------|----------------|------------|----------------|

D :----------------|----------------|------------|----------------|

A :----------------|----------------|1---1---1---|3---3---3---0---|

E :----------------|--------1---0---|------------|----------------|

B :3---3---3---3---|3---3-----------|------------|----------------|

G :----------------|----------------|------------|----------------|

D :----------------|----------------|------------|1---1---1-------|

A :----------------|----------------|4---4---4---|------------3---|

E :1---1---1---1---|1---1---4---3---|------------|----------------|

B :----------------|----------------|------------|----------------|

G :----------------|----------------|------------|----------------|

D :----------------|----------------|------------|1---1---1-------|

A :----------------|----------------|4---4---4---|------------3---|

E :1---1---1---1---|1---1---4---3---|------------|----------------|

B :----------------|----------------|------------|----------------|

G :----------------|----------------|----------------|----------------|

D :----------------|----------------|----------------|------------3---|

A :----------------|----------------|----------------|----------------|

E :1-1*1-1*1-1*1-1-|1-1*1-1*1-1*1-1-|1-1*1-1*1-1*1-1-|1-1*1-1*1-1*--1-|

B :----------------|----------------|----------------|----------------|

G :----------------|----------------|----------------|-----------------|

D :----------------|----------------|----------------|------------3----|

A :----------------|----------------|3-3*3-3*3-3*3-3*|-----------------|

E :1-1*1-1*1-1*1-1-|1-1*1-1*1-1-1-1*|----------------|1-1*1-1*1-1*--0-1|

B :----------------|----------------|----------------|-----------------|

G :----------------|----------------|----------------|----------------|

D :----------------|----------------|----------------|----------2-3---|

A :----------------|----------------|----------------|----------------|

E :1-1*1-1*1-1*1-1-|1-1*1-1*1-1*1-1-|2-2*2-2*2-2*2-2-|1-1*1-1*1-----1*|

B :----------------|----------------|----------------|----------------|

G :----------------------|----------------------|----------------------|

D :----------------------|----------------------|----------------------|

A :1-1-1-1-1-1-1-1-1-1-1-|----------------------|----------------------|

E :----------------------|4-4-4-4-4-4-4-4-4-4-4-|2-2-2-2-2-2-2-2-2-2-2-|

B :----------------------|----------------------|----------------------|

G :----------------------|----------------------|----------------------|

D :----------------------|----------------------|----------------------|

A :----------------------|1-1-1-1-1-1-1-1-1-1-1-|----------------------|

E :4-4-4-4-4-4-4-4-4-4-4-|----------------------|4-4-4-4-4-4-4-4-4-4-4-|

B :----------------------|----------------------|----------------------|

G :----------------------|----------------------|----------------|

D :----------------------|----------------------|----------------|

A :----------------------|----------------------|----------------|

E :----------------------|1-1-1-1-1-1-1-1-1-1-1-|1-1*1-1*1-1*1-1*|

B :4-4-4-4-4-4-4-4-4-4-4-|----------------------|----------------|

G :----------------|----------------|-----------------|----------------|

D :----------------|----------------|------------3----|----------------|

A :----------------|3-3*3-3*3-3*3-3*|-----------------|----------------|

E :1-1*1-1*1-1-1-1*|----------------|1-1*1-1*1-1*--0-1|1-1*1-1*1-1*1-1*|

B :----------------|----------------|-----------------|----------------|

G :----------------|----------------|----------------|

D :----------------|----------------|----------2-3---|

A :----------------|----------------|----------------|

E :1-1*1-1*1-1*1-1*|2-2*2-2*2-2*2-2*|1-1*1-1*1-----1*|

B :----------------|----------------|----------------|

G :----------------------|----------------------|----------------------|

D :----------------------|----------------------|----------------------|

A :1-1-1-1-1-1-1-1-1-1-1-|----------------------|----------------------|

E :----------------------|4-4-4-4-4-4-4-4-4-4-4-|2-2-2-2-2-2-2-2-2-2-2-|

B :----------------------|----------------------|----------------------|

G :----------------------|----------------------|----------------------|

D :----------------------|----------------------|----------------------|

A :----------------------|1-1-1-1-1-1-1-1-1-1-1-|----------------------|

E :4-4-4-4-4-4-4-4-4-4-4-|----------------------|4-4-4-4-4-4-4-4-4-4-4-|

B :----------------------|----------------------|----------------------|

G :----------------------|----------------------|----------------|

D :----------------------|----------------------|----------------|

A :----------------------|----------------------|----------------|

E :----------------------|1-1-1-1-1-1-1-1-1-1-1-|----5-----------|

B :4-4-4-4-4-4-4-4-4-4-4-|----------------------|4-----4-----4---|

G :----------------|----------------|----------------|----------------|

D :----------------|----------------|----------------|----------------|

A :4---4---3---3---|1---------------|*---------------|----------------|

E :----------------|----------------|----------------|----------------|

B :----------------|----------------|----------------|----------------|

G :----------------|----------------|----------------|----------------|

D :----------------|----------------|----------------|----------------|

A :----------------|----------------|----------------|----------------|

E :----------------|----------------|----------------|----------------|

B :----------------|----------------|----------------|----------------|

G :----------------|----------------|----------------|----------------|

D :----------------|----------------|----------------|----------------|

A :----------------|----------------|----------------|----------------|

E :----------------|----------------|----------------|----------------|

B :----------------|----------------|----------------|----------------|

G :----------------|----------------|----------------|----------------|

D :----------------|----------------|----------------|----------------|

A :----------------|----------------|----------------|----------------|

E :----------------|----------------|----------------|----------------|

B :----------------|----------------|----------------|----------------|

G :----------------|----------------|----------------|----------------|

D :----------------|----------------|1-3---3-3---3-1-|----------------|

A :----------------|----------------|----------------|1---------------|

E :----------------|1---------------|----------------|----------------|

B :----------------|--------------4-|----------4-----|----------------|

G :----------------|----------------|----------------|----------------|

D :----------------|----------------|----------------|----------------|

A :----------------|1---------------|----------------|----------------|

E :4---------------|----------------|----------------|1-------------1-|

B :----------------|----------------|4---------------|----------------|

G :----------------|----------------|----------------|----------------|

D :------------1---|----------------|----------------|----------------|

A :3-------------3-|1---------------|--------------1-|4-----------1-3-|

E :----------------|--------------4-|1-----------4---|----------------|

B :----------------|----------------|----------------|----------------|

G :----------------|----------------|----------------|----------------|

D :1---------------|------3-3---3-3-|--0-------------|----------------|

A :------------3---|----------------|----3-2-0---0-2-|3-3-3-3-3-3-3-3-|

E :----------------|1---1-----1-----|1---------3-----|----------------|

B :----------------|----------------|----------------|----------------|

G :----------------|----------------|----------------|----------------|

D :----------------|----------------|----------------|----------------|

A :1-1-1-1-1-1-1-1-|3-3-3-3-3-3---3-|----------------|------------1---|

E :----------------|------------3---|1-1-1-1-1-1-1-1-|3-3-3-3-3-3---0-|

B :----------------|----------------|----------------|----------------|

G :----------------|----------------|----------------|----------------|

D :0-0-0-0-0-0-0-0-|----------------|----------------|----------------|

A :----------------|3-3-3-3-3-------|------------1---|----------------|

E :----------------|----------1---1-|3-3-3-3-3-3---0-|----------------|

B :----------------|------------4---|----------------|3-3-3-3-3-3-3-3-|

G :----------------|----------------|--------|----------------|

D :----------------|----------------|--------|----------------|

A :----------------|----------------|--------|----------------|

E :1-1-1-1-1-1-1-1-|3---------------|----*---|----------------|

B :----------------|----------------|--------|----------------|

G :----------------|----------------|----------------|----------------|

D :----------------|----------------|----------------|----------------|

A :----------------|----------------|----------------|----------------|

E :----------------|----------------|----------------|----------------|

B :----------------|----------------|----------------|----------------|

G :----------------|----------------|----------------|----------------|

D :----------------|----------------|----------------|----------------|

A :----------------|----------------|----------------|----------------|

E :----------------|----------------|----------------|----------------|

B :----------------|----------------|----------------|----------------|

G :----------------|----------------|----------------|----------------|

D :----------------|----------------|----------------|----------------|

A :----------------|----------------|----------------|----------------|

E :----------------|----------------|----------------|----------------|

B :----------------|----------------|----------------|----------------|

G :----------------|--------|----------------|----------------|

D :----------------|--------|----------------|----------------|

A :----------------|--------|----------------|----------------|

E :----------------|--------|----------------|----------------|

B :----------------|--------|----------------|----------------|

G :----------------|----------------|----------------|----------------|

D :----------------|----------------|----------------|----------------|

A :----------------|----------------|----------------|----------------|

E :----------------|----------------|----------------|----------------|

B :----------------|----------------|----------------|----------------|

G :--------|----------------|------------|------------|------------|

D :--------|----------------|------------|------------|------------|

A :--------|----------------|------------|------------|------------|

E :--------|----------------|3---*-------|------------|------------|

B :--------|----------------|------------|------------|------------|

G :------------|------------|------------|------------|------------|

D :------------|------------|------------|------------|------------|

A :------------|------------|------------|--------0---|------------|

E :----3---1---|3---*-------|------------|----1-------|3-----------|

B :------------|------------|4-----------|*-----------|------------|

G :------------|------------|------------|------------|------------|

D :------------|------------|------------|------------|------------|

A :------------|------------|------------|------------|------------|

E :3---*-------|------------|------------|----3---1---|3-----------|

B :------------|4---*-------|------------|------------|------------|

G :------------|------------|------------|------------|------------|

D :------------|------------|------------|------------|------------|

A :------------|------------|------------|------------|------------|

E :------------|3-------1---|3-----------|3---3---3---|3---3---3---|

B :4-4-4*------|----4-4-----|------------|------------|------------|

G :------------|------------|------------|------------|------------|

D :------------|------------|------------|------------|------------|

A :------------|------------|------------|------------|------------|

E :--------1---|3---3---3---|3---3---3---|------------|1---1---1---|

B :4---4-------|------------|------------|4---4---4---|------------|

G :------------|------------|------------|------------|------------|

D :------------|------------|------------|------------|------------|

A :----1---0---|------------|------------|------------|------------|

E :3-----------|3---3---3---|3---3---3---|--------1---|3---3---3---|

B :------------|------------|------------|4---4-------|------------|

G :------------|------------|------------|------------|------------|

D :------------|------------|------------|------------|------------|

A :------------|------------|------------|----1---0---|1---1---1---|

E :3---3---3---|------------|1---1---1---|3-----------|------------|

B :------------|4---4---4---|------------|------------|------------|

G :------------|------------|------------|------------|------------|

D :------------|------------|------------|------------|------------|

A :1---1---1---|------------|1---1---1---|1---1---1---|------------|

E :------------|4---4---4---|------------|------------|2---2---2---|

B :------------|------------|------------|------------|------------|

G :------------|------------|------------|------------|------------|

D :------------|------------|------------|------------|------------|

A :------------|1---4---3---|1---1---1---|1---1---1---|------------|

E :4---4---4---|------------|------------|------------|4---4---4---|

B :------------|------------|------------|------------|------------|

G :------------|------------|------------|------------|------------|

D :------------|------------|------------|------------|------------|

A :1---1---1---|1---1---1---|------------|------------|1---1---1---|

E :------------|------------|2---2---2---|4---4---4---|------------|

B :------------|------------|------------|------------|------------|

G :------------|------------|------------|------------|------------|

D :------------|------------|------------|----0-------|------------|

A :------------|------------|------------|--------4---|------------|

E :3---*-------|------------|------------|------------|3---*-------|

B :------------|------------|------------|------------|------------|

G :------------|------------|------------|------------|------------|

D :------------|------------|------------|------------|------------|

A :------------|------------|----1---0---|------------|------------|

E :------------|------------|------------|3---3---*---|3---3---*---|

B :------------|------------|------------|------------|------------|

G :------------|------------|------------|------------|------------|

D :------------|------------|------------|------------|------------|

A :------------|1---0-------|------------|------------|------------|

E :3---3---*---|--------1---|3-3-3---*---|3-3-3---*---|--------1---|

B :------------|------------|------------|------------|3---4-------|

G :------------|------------|------------|------------|------------|

D :------------|------------|------------|------------|------------|

A :------------|------------|------------|------------|------------|

E :2---1-------|------------|------------|------------|----2-------|

B :--------4---|3-3-3-3-3-3-|3-3-3-3-3-3-|3-3-3-3-3-3-|3-------4---|

G :------------|------------|------------|------------|------------|

D :------------|------------|------------|------------|------------|

A :------------|------------|------------|------------|------------|

E :------------|------------|------------|1---2-------|------------|

B :3-3-3-3-3-3-|3-3-3-3-3-3-|3-3-3-3-3-3-|--------4---|3-3-3-3-3-3-|

G :------------|------------|------------|------------|------------|

D :------------|------------|------------|------------|------------|

A :------------|------------|------------|------------|------------|

E :------------|------------|----2-------|------------|------------|

B :3-3-3-3-3-3-|3-3-3-3-3-3-|3-------4---|3-3-3-3-3-3-|3-3-3-3-3-3-|

G :------------|------------|------------|------------|------------|

D :------------|------------|------------|------------|------------|

A :------------|------------|------------|------------|------------|

E :------------|1---2-------|3---3---3---|3---3---3---|3---3---3---|

B :3-3-3-3-3-3-|--------4---|------------|------------|------------|

G :------------|------------|------------|------------|------------|

D :------------|------------|------------|------------|------------|

A :------------|------------|------------|3---3---3---|3---3---3---|

E :3---3---3---|1---1---1---|1---1---1---|------------|------------|

B :------------|------------|------------|------------|------------|

G :------------|------------|------------|------------|------------|

D :------------|------------|------------|------------|------------|

A :------------|------------|------------|------------|------------|

E :3---3---3---|------------|------------|1---1---1---|3---3---3---|

B :------------|3---3---3---|4---4---4---|------------|------------|

G :------------|------------|------------|------------|------------|

D :------------|------------|------------|------------|------------|

A :------------|------------|------------|1---1---1---|------------|

E :------------|------------|1---1---1---|------------|1---1---1---|

B :3---3---3---|4---4---4---|------------|------------|------------|

G :------------|------------|------------|------------|------------|

D :------------|------------|------------|------------|------------|

A :------------|------------|1---1---1---|------------|1---0-------|

E :2---2---2---|4---4---4---|------------|1---1---1---|--------4---|

B :------------|------------|------------|------------|------------|

G :------------|------------|------------|------------|------------|

D :------------|------------|------------|------------|------------|

A :------------|------------|------------|------------|------------|

E :3---2---1---|*-----------|------------|------------|------------|

B :------------|------------|------------|------------|------------|

G :------------|------------|------------|------------|------------|

D :------------|------------|------------|------------|------------|

A :------------|------------|------------|------------|------------|

E :3---3---3---|3---3---3---|1---1---1---|3---3---3---|3---3---3---|

B :------------|------------|------------|------------|------------|

G :------------|------------|------------|------------|------------|

D :------------|------------|------------|------------|------------|

A :------------|------------|----1---0---|------------|------------|

E :------------|1---1---1---|3-----------|3---3---3---|3---3---3---|

B :4---4---4---|------------|------------|------------|------------|

G :------------|------------|------------|------------|------------|

D :------------|------------|------------|------------|------------|

A :------------|------------|------------|------------|------------|

E :1---1---1---|3---3---3---|3---3---3---|------------|1---1---1---|

B :------------|------------|------------|4---4---4---|------------|

G :------------|------------|------------|------------|------------|

D :------------|------------|------------|------------|------------|

A :----1---0---|1---1---1---|1---1---1---|------------|1---1---1---|

E :3-----------|------------|------------|4---4---4---|------------|

B :------------|------------|------------|------------|------------|

G :------------|------------|------------|------------|------------|

D :------------|------------|------------|------------|------------|

A :1---1---1---|------------|------------|1---4---3---|1---1---1---|

E :------------|2---2---2---|4---4---4---|------------|------------|

B :------------|------------|------------|------------|------------|

G :------------|------------|------------|------------|------------|

D :------------|------------|------------|------------|------------|

A :1---1---1---|------------|1---1---1---|1---1---1---|------------|

E :------------|4---4---4---|------------|------------|2---2---2---|

B :------------|------------|------------|------------|------------|

G :------------|------------|------------|------------|------------|

D :------------|------------|------------|------------|------------|

A :------------|1-----------|1-----------|1-----------|------------|

E :4---4---4---|------------|----2---4---|------------|4-----4-----|

B :------------|------------|------------|------------|------------|

G :------------|------------------------|------------------------|

D :------------|------------------------|------------------------|

A :------------|1-1-1-1-1-1-1-*---------|1-1-1-1-1-1-1---4---3---|

E :--------1---|------------------------|------------------------|

B :4---4-------|------------------------|------------------------|

G :---------------------|------------------------|------------------------|

D :---------------------|------------------------|------------------------|

A :---------------------|------------------------|1-1-1-1-1-1-1-*---------|

E :2-2-2-2-2-2-2-----*--|4-4-4-4-4-4-4---1---4---|------------------------|

B :---------------------|------------------------|------------------------|

G :------------------------|---------------------|------------------------|

D :------------------------|---------------------|------------------------|

A :1-1-1-1-1-1-1---4---3---|---------------------|------------------------|

E :------------------------|2-2-2-2-2-2-2-----*--|4-4-4-4-4-4-4-------1---|

B :------------------------|---------------------|------------------------|

G :----------------|----------------|----------------|----------------|

D :----------------|----------------|------0-------0-|------0-----0---|

A :----------------|----------------|------------1---|--------------3-|

E :*---------------|----------------|----------------|----------------|

B :----------------|----------------|3---3-----------|3---3-----------|

G :----------------|----------------|----------------|----------------|

D :----------------|----------------|------0-------0-|------0-----0---|

A :1---1-1-------0-|3-----3-3-3-0-0-|------------1---|--------------3-|

E :------------1---|----------------|----------------|----------------|

B :----------------|----------------|3---3-----------|3---3-----------|

G :----------------|----------------|----------------|----------------|

D :----------------|----------------|----------------|----------------|

A :1---1-1-------0-|3-----3-3-3-0-0-|1---1---3---3---|----------------|

E :------------1---|----------------|----------------|--------3---3---|

B :----------------|----------------|----------------|3---3-----------|

G :----------------------|----------------------|----------------------|

D :----------------------|----------------------|----------------------|

A :----------------------|----------------------|----------------------|

E :1-1-1-1-1-1-1-1-1-1-1-|----------------------|----------------------|

B :----------------------|4-4-4-4-4-4-4-4-4-4-4-|2-2-2-2-2-2-2-2-2-2-2-|

G :----------------------|----------------------|----------------------|

D :----------------------|----------------------|----------------------|

A :----------------------|----------------------|----------------------|

E :----------------------|1-1-1-1-1-1-1-1-1-1-1-|----------------------|

B :4-4-4-4-4-4-4-4-4-4-4-|----------------------|4-4-4-4-4-4-4-4-4-4-4-|

G :----------------------|----------------------|----------------------|

D :----------------------|----------------------|----------------------|

A :1-1-1-1-1-1-1-1-1-1-1-|3-3-3-3-3-3-3-3-3-3-3-|----------------------|

E :----------------------|----------------------|1-1-1-1-1-1-1-1-1-1-1-|

B :----------------------|----------------------|----------------------|

G :----------------------|----------------------|----------------------|

D :----------------------|----------------------|----------------------|

A :----------------------|----------------------|----------------------|

E :----------------------|----------------------|----------------------|

B :4-4-4-4-4-4-4-4-4-4-4-|2-2-2-2-2-2-2-2-2-2-2-|4-4-4-4-4-4-4-4-4-4-4-|

G :----------------------|----------------------|----------------------|

D :----------------------|----------------------|----------------------|

A :----------------------|----------------------|1-1-1-1-1-1-1-1-1-1-1-|

E :1-1-1-1-1-1-1-1-1-1-1-|----------------------|----------------------|

B :----------------------|4-4-4-4-4-4-4-4-4-4-4-|----------------------|

G :----------------------|----------------------|----------------------|

D :----------------------|----------------------|----------------------|

A :3-3-3-3-3-3-3-3-3-3-3-|----------------------|----------------------|

E :----------------------|1-1-1-1-1-1-1-1-1-1-1-|----------------------|

B :----------------------|----------------------|4-4-4-4-4-4-4-4-4-4-4-|

G :----------------------|----------------------|----------------------|

D :----------------------|----------------------|----------------------|

A :----------------------|----------------------|----------------------|

E :----------------------|----------------------|1-1-1-1-1-1-1-1-1-1-1-|

B :2-2-2-2-2-2-2-2-2-2-2-|4-4-4-4-4-4-4-4-4-4-4-|----------------------|

G :----------------------|----------------------|----------------------|

D :----------------------|----------------------|----------------------|

A :----------------------|1-1-1-1-1-1-1-1-1-1-1-|3-3-3-3-3-3-3-3-3-3-3-|

E :----------------------|----------------------|----------------------|

B :4-4-4-4-4-4-4-4-4-4-4-|----------------------|----------------------|

G :----------------------|----------------------|----------------------|

D :----------------------|----------------------|----------------------|

A :----------------------|----------------------|----------------------|

E :1-1-1-1-1-1-1-1-1-1-1-|----------------------|----------------------|

B :----------------------|4-4-4-4-4-4-4-4-4-4-4-|2-2-2-2-2-2-2-2-2-2-2-|

G :----------------------|----------------------|----------------------|

D :----------------------|----------------------|----------------------|

A :----------------------|----------------------|----------------------|

E :----------------------|1-1-1-1-1-1-1-1-1-1-1-|----------------------|

B :4-4-4-4-4-4-4-4-4-4-4-|----------------------|4-4-4-4-4-4-4-4-4-4-4-|

G :----------------------|----------------------|----------------------|

D :----------------------|----------------------|----------------------|

A :1-1-1-1-1-1-1-1-1-1-1-|3-3-3-3-3-3-3-3-3-3-3-|----------------------|

E :----------------------|----------------------|1-1-1-1-1-1-1-1-1-1-1-|

B :----------------------|----------------------|----------------------|

G :----------------------|----------------------|----------------------|

D :----------------------|----------------------|----------------------|

A :----------------------|----------------------|----------------------|

E :----------------------|----------------------|----------------------|

B :4-4-4-4-4-4-4-4-4-4-4-|2-2-2-2-2-2-2-2-2-2-2-|4-4-4-4-4-4-4-4-4-4-4-|

G :----------------------|----------------------|----------------------|

D :----------------------|----------------------|----------------------|

A :----------------------|----------------------|1-1-1-1-1-1-1-1-1-1-1-|

E :1-1-1-1-1-1-1-1-1-1-1-|----------------------|----------------------|

B :----------------------|4-4-4-4-4-4-4-4-4-4-4-|----------------------|

G :----------------------|----------------|

D :----------------------|----------------|

A :3-3-3-3-3-3-3-3-3-3-3-|*---------------|

E :----------------------|----------------|

B :----------------------|----------------|

Get this song at:  amazon.com sheetmusicplus.com

Share your thoughts

0 Comments found