Nightwish

Nightwish - Ghost Love Score guitar tab

0.39 Intro

e:-----------|--------------------------------------------------------------|

B:-----------|--------------------------------------------------------------|

G:--5-5-5-5--|---------------------3333333-55555-5-5-2----------------------|

D:--5-5-5-5--|-0000000-000000-3-2--3333333-55555-5-5-2----------------------|

A:--3-3-3-3--|-0000000-000000-3-2--1111111-33333-3-3-0----------------------|

D:-----------|-0000000-000000-3-2-------------------------------------------|

e:--------------------------------------------------------------------------|

B:--------------------------------------------------------------------------|

G:----------------------3333333-55555-5-5-2---------------------------------|

D:--0000000-000000-3-2--3333333-55555-5-5-2---------------------------------|

A:--0000000-000000-3-2--1111111-33333-3-3-0---------------------------------|

D:--0000000-000000-3-2------------------------------------------------------|

e:----------------------------------------------------------------------------|

B:----------------------------------------------------------------------------|

G:----------------------6666666-88888-8-8-5-----------------------------------|

D:--3333333-333333-6-5--6666666-88888-8-8-5-----------------------------------|

A:--3333333-333333-6-5--4444444-66666-6-6-3-----------------------------------|

D:--3333333-333333-6-5--------------------------------------------------------|

e:--------------------------------------------------------------------------|

B:--------------------------------------------------------------------------|

G:----------------------6666666-88888-8-8-8---------------------------------|

D:--3333333-333333-6-5--6666666-88888-8-8-8-3-------------------------------|

A:--3333333-333333-6-5--4444444-66666-6-6-6-3-------------------------------|

D:--3333333-333333-6-5----------------------3-------------------------------|

1.36 chorus (repeat at 2.12)

e:--------------------------------------------------------------------------|

B:--------------------------------------------------------------------------|

G:--3-3-333-3-3-33-3--------------------------------------------------------|

D:--3-3-333-3-3-33-3-6-6-666-6-6-66-6-4-4-444-4-4-44-4-6-6-666-6-6-66-6-----|

A:--1-1-111-1-1-11-1-6-6-666-6-6-66-6-4-4-444-4-4-44-4-6-6-666-6-6-66-6-----|

D:-------------------6-6-666-6-6-66-6-4-4-444-4-4-44-4-6-6-666-6-6-66-6-----|

e:----------------------------------------------------------------|at 2.32----|

B:--------------------------------------------------------------------|-------|

G:-3-3-333-3-3-33-3------------------------------------------------|-8-6-5-3--|

D:-33-333-3-333-3-6-6-666-6-6-66-6-1-1-1111-1-11-1-3-3-333-3-3-33-3|-8-6-5-3--|

A:-11-111-1-111-1-6-6-666-6-6-66-6-1-1-1111-1-11-1-3-3-333-3-3-33-3|-6-4-3-1--|

D:------------------6-6-666-6-6-66-6-1-1-111-1-1-11-1-3-3-333-3-3-33-3|-------|

3.41 solo

e:-----------------3---------------------3----------------------------------|

B:---------------4---4-6~--4-3---------4---4-6--4---------------------------|

G:-------(10)--5---------------5-3---5------------5~------------------------|

D:--------------------------------------------------------------------------|

A:--------------------------------------------------------------------------|

D:--------------------------------------------------------------------------|

e:-----------------------------------------5------6----8----10--------------|

B:---------------------------------------8----------------------------------|

G:---5-7-----------5-7-----------------8--------8----8----10----------------|

D:-------8--0-3-3------8--0-8-7-5-------------------------------------------|

A:--------------------------------------------------------------------------|

D:--------------------------------------------------------------------------|

5.34

e:--------------------------------------------------------------------------|

B:--------------------------------------------------------------------------|

G:-----------------5-7---------------------2-5-7----------------------------|

D:--5---5-5-5--1--5-7-5--5-1---5-5-5-111--2-5-7-5--------------------------|

A:--5---5-5-5--1--3-5-5--5-1---5-5-5-111--0-3-5-5--------------------------|

D:--5---5-5-5--1------5--5-1---5-5-5-111--------5--------------------------|

5.47

e:--------------------------------------------------------------------------|

B:--------------------------------------------------------------------------|

G:--------------------------------------------------------------------------|

D:--5-55-5-55-3-5--5-1-3-5--8-7--5-55-5-55-3-5--5-1-3-5--8-7----------------|

A:--5-55-5-55-3-5--5-1-3-5--8-7--5-55-5-55-3-5--5-1-3-5--8-7----------------|

D:--5-55-5-55-3-5--5-1-3-5--8-7--5-55-5-55-3-5--5-1-3-5--8-7----------------|

e:--------------------------------------------------------------------------|

B:--------------------------------------------------------------------------|

G:--3-33-3-33---3--3-----3--6-5--3-33-3-33---3--3-----3---------------------|

D:--3-33-3-33-6-3--3-4-6-3--6-5--3-33-3-33-6-3--3-4-6-3---------------------|

A:--1-11-1-11-6-1--1-4-6-1--4-3--1-11-1-11-6-1--1-4-6-1---------------------|

D:------------6------4-6-------------------6------4-6-----------------------|

6.15

e:--------------------------------------------------------------------------|

B:--------------------------------------------------------------------------|

G:------7-6-----7-6---------------------------------------------------------|

D:--5---7-6-5---7-6-5-5--5-5--5-5--5-5-0-555-555---0-1-3-4-3-1-0------------|

A:--5---5-4-5---5-4-5-5--5-5--5-5--5-5-0-555-555---0-1-3-4-3-1-0------------|

D:--5-------5-------5-5--5-5--5-5--5-5-0-555-555---0-1-3-4-3-1-0------------|

play twice

e:--------------------------------------------------------------------------|

B:--------------------------------------------------------------------------|

G:--------------------------------------------------------------------------|

D:--0-0-0-0-0-0-0-0-0-0-0-0-4-1-0-0-0-0-0-0-0-0-0-0-0-0-3-4-1---------------|

A:--0-0-0-0-0-0-0-0-0-0-0-0-4-1-0-0-0-0-0-0-0-0-0-0-0-0-3-4-1---------------|

D:--0-0-0-0-0-0-0-0-0-0-0-0-4-1-0-0-0-0-0-0-0-0-0-0-0-0-3-4-1---------------|

6.45

e:--------------------------------------------------------------------------|

B:--------------------------------------------------------------------------|

G:----------5---------------------3--2--3-----------3-----------------------|

D:--5---3---5---5--0--1--3--5--0--3--2--3--3--4--6--3--3--6-5-4-3-2-1-0-----|

A:--5---3---3---5--0--1--3--5--0--1--0--1--3--4--6--1--3--6-5-4-3-2-1-0-----|

D:--5---3-------5--0--1--3--5--0-----------3--4--6-----3--6-5-4-3-2-1-0-----|

7.09

e:---------------------------------------------------------------------------|

B:---------------------------------------------------------------------------|

G:---------------------------------------------------------------------------|

D:--5-55-5-55-3-5--5-1-3-5--8-7--5-55-5-55-3-5--5-1-3-5--8-7-----------------|

A:--5-55-5-55-3-5--5-1-3-5--8-7--5-55-5-55-3-5--5-1-3-5--8-7-----------------|

D:--5-55-5-55-3-5--5-1-3-5--8-7--5-55-5-55-3-5--5-1-3-5--8-7-----------------|

e:--------------------------------------------------------------------------|

B:--------------------------------------------------------------------------|

G:--3-33-3-33---3--3-----3--6-5--3-33-3-33---3--3-----3---------------------|

D:--3-33-3-33-6-3--3-4-6-3--6-5--3-33-3-33-6-3--3-4-6-3---------------------|

A:--1-11-1-11-6-1--1-4-6-1--4-3--1-11-1-11-6-1--1-4-6-1---------------------|

D:------------6------4-6-------------------6------4-6-----------------------|

e:--------------------------------------------------------------------------|

B:--------------------------------------------------------------------------|

G:--------------------------------------------------------------------------|

D:---6-1-6----666-666--4-4-6------------------------------------------------|

A:---6-1-6----666-666--4-4-6------------------------------------------------|

D:---6-1-6----666-666--4-4-6------------------------------------------------|

7.42

e:---------------------------------------------------------------------------|

B:---------------------------------------------------------------------------|

G:-3333333-333333-6-5--------------------3333333-333333-65-------------------|

D:-3333333-333333-6-5-4444444-666666-3-6-3333333-333333-65-4444444-666666-33-|

A:-1111111-111111-4-3-4444444-666666-3-6-1111111-111111-4-3-4444444-666666-3-|

D:--------------------4444444-666666-3-6--------------------4444444-666666-3-|

7.57

e:----------------------------------------------------------------------------|

B:----------------------------------------------------------------------------|

G:-----------3--3--3--5--5------------------3--3--3--5--5---------3--5--------|

D:-0-0-0-0-0--3--3--3--5--5------0-0-0-0-0--3--3--3--5--5---------3--5--0--5--|

A:-0-0-0-0-0--1--1--1--3--3--3--0--0-0-0-0-0--1--1--1--3--3-3--0--1--3--0--5--|

D:-0-0-0-0-0---------------------0-0-0-0-0------------------------------0--5--|

8.22 chorus (repeat until the end)

e:--------------------------------------------------------------------------|

B:--------------------------------------------------------------------------|

G:--------------------------------------------------------------------------|

D:--3-3-333-3-3-33-3-1-1-111-1-1-11-1-3-3-333-3-3-33-3-1-1-111-1-1-11-1-----|

A:--3-3-333-3-3-33-3-1-1-111-1-1-11-1-3-3-333-3-3-33-3-1-1-111-1-1-11-1-----|

D:--3-3-333-3-3-33-3-1-1-111-1-1-11-1-3-3-333-3-3-33-3-1-1-111-1-1-11-1-----|

e:--------------------------------------------------------------------------|

B:--------------------------------------------------------------------------|

G:------------------------------------3-3-333-3-3-33-3-5-5-555-5-5-55-5-----|

D:--3-3-333-3-3-33-3-1-1-111-1-1-11-1-3-3-333-3-3-33-3-5-5-555-5-5-55-5-----|

A:--3-3-333-3-3-33-3-1-1-111-1-1-11-1-1-1-111-1-1-11-1-3-3-333-3-3-33-3-----|

D:--3-3-333-3-3-33-3-1-1-111-1-1-11-1---------------------------------------|

Get this song at:  amazon.com sheetmusicplus.com

Share your thoughts

0 Comments found