Nightwish

Nightwish - Getsemane guitar tab

Nightwish - Gethsemane

Transcribed by Paul K. Pekkarinen (paulkp@hotmail.com)

|-----------------------12------------------------------------------------|

|----------------8-12-8----------12-10-12-8-12-7-12---12-10-12-8-12-7-12--|

|---------9----9---------------9--------------------9---------------------|

|---5-9-5-----------------------------------------------------------------|

|-7-----------------------------------------------------------------------|

|-------------------------------------------------------------------------|

|----------------------------------|--------------------------------------|

|---12-10-12-8-12-7-12-------------|----------------------------13--------|

|-9--------------------9---8---9~--|---------------------9-12-9-----------|

|----------------------------------|-------------10---10------------------|

|----------------------------------|------7-10-7--------------------------|

|----------------------------------|-8--8---------------------------------|

|-------------------------------------------------------------------------|

|-------------------------------------------------------------------------|

|---5--4-2-4-2----------2---4-2------4--------------4-----4--2------------|

|--------------5|2--4-5---5-----5-4--4--------------4-----4--2--5--4--2---|

|-3----------------------------------2----2-.-.-.-2-2-----2--0--5--4--2---|

|---------------------------------------------------------------3--2--0---|

"Told no bell for.." "But let this cup of suffering pass from me"

|-------------------------------------------------------------------------|

|-------------------------------------------------------------------------|

|--------------------|-4-2-------2-2-2--------5---------------------------|

|-2--2-2--2-2-2--2-2-|-4-2-------2-2-2--------5---------------------------|

|-2--2-2--2-2-2--2-2-|-2-0--0-0--0-0-0--0-0---3------5s--3s--5s--7~--7----|

|-0--0-0--0-0-0--0-0-|-----------------------------------------------0----|

"..done..." "The Lord weeps for me"

|-------------------------------------------------------------------------|

|-------------------------------------------------------------------------|

|-2-----------------------------5----7----5-------------7--2--------------|

|-2-----------------------------5----7----5-------------7--2--------------|

|-0--0---0---0-0-0---0---0-0----3----5----3-------------5--0--------------|

|-------------------------------------------------------------------------|

"But my tears fall for you"

|-------------------------------------------------------------------------|

|-------------------------------------------------------------------------|

|--7------------------------------------------7---------------------------|

|--7-------------7----------------------------7---------------------------|

|--5-------------7--------------7-7-7-.-.-.---5---------------------------|

|----------------5--------------------------------------------------------|

(Before flute solo)

|-------------------------------------------------------------------------|

|-------------------------------------------------------------------------|

|-------------------------------------------------------------------------|

|---------------------------------4s3-------------------------------------|

|-4---4-4---4---4-4---4---4-4-4-4-----4---4-4---4---4-4|4h5p4---4---------|

|-------------------------------------------------------------7---7-5-4---|

|------------------------------------------------------------------------------------|

|------------------------------------------------------------------------------------|

|------------------------------------------------------------------------------------|

|---------------------------------4s3-------------------5-4--|------------------7s

Get this song at:  amazon.com sheetmusicplus.com

Share your thoughts

0 Comments found