Nightwish

Nightwish - Fantasmic guitar tab

The most beautiful song by Nightwish

Stigmate70@hotmail.com

Hope you like it enjoy !

-- FantasMic part I

Intro (guitar enters at 0:07)

e:-----------------------------------------------------------------------------|

B:-----------------------------------------------------------------------------|

G:-----------------------------------------------------------------------------|

D:--------------------------2--------------------------------------------------|

A:-2----------2--2----------2----------2--2------------------------------------|

E:-0----------0--0----------0----------0--0------------------------------------|

. . . . .

Riff

Play it three times

e:-----------------------------------------------------------------------------|

B:-----------------------------------------------------------------------------|

G:------------7---9------------------------------------------------------------|

D:-9---9-10-----------9---9-10---7---9---9-7-----------------------------------|

A:---7------7---7---7---7------7---7---7-----7-10-7-9-7-9-10-7-9-7-6-7-9-------|

E:-----------------------------------------------------------------------------|

. . . . . . . . .

The fourth time :

e:-----------------------------------------------------------------------------|

B:-----------------------------------------------------------------------------|

G:------------7---9----------------------5---7----5----------------------------|

D:-9---9-10-----------9---9-10---7---7---5---7----5---5---3--------------------|

A:---7------7---7---7---7------7---7-7---3---5----3---5---3--------------------|

E:-----------------------------------5----------------3---2--------------------|

| . . . . . . .

e:-------------------------------------------10-------15--14~------------------|

B:-----------------------------------10--13-------13---------------------------|

G:-----------------------------------------------------------------------------|

D:-----------------------------------------------------------------------------|

A:-----------------------------------------------------------------------------|

E:-----------------------------------------------------------------------------|

The fifth & seventh times :

e:-----------------------------------------------------------------------------|

B:-----------------------------------------------------------------------------|

G:------------7---9------------------------------------------------------------|

D:-9---9-10-----------9---9-10---7---9---9-7-----------------------------------|

A:---7------7---7---7---7------7---7---7-----7-10-7-9-7-9-10-7-9-7-6-7-9-------|

E:-----------------------------------------------------------------------------|

. . . . . . . . .

The sixth time :

e:-----------------------------------------------------------------------------|

B:-----------------------------------------------------------------------------|

G:------------7---9------------------------------------------------------------|

D:-9---9-10-----------9---9-10---7-----5-7-------------------------------------|

A:---7------7---7---7---7------7---7-5-----8*----------------------------------|

E:-----------------------------------------------------------------------------|

. . . . . .

The eighth time :

e:-----------------------------------------------------------------------------|

B:-----------------------------------------------------------------------------|

G:------------7---9----------------------5---7----5----------------------------|

D:-9---9-10-----------9---9-10---7---7---5---7----5---5---4--------------------|

A:---7------7---7---7---7------7---7-7---3---5----3---5---4--------------------|

E:-----------------------------------5----------------3---2--------------------|

| . . . . . . .

e:-------------------------------------------10-------15--14~------------------|

B:-----------------------------------10--13-------13---------------------------|

G:-----------------------------------------------------------------------------|

D:-----------------------------------------------------------------------------|

A:-----------------------------------------------------------------------------|

E:-----------------------------------------------------------------------------|

Verse, play it 2 times

e:-----------------------------------------------------------------------------|

B:-----------------------------------------------------------------------------|

G:----------------------5--7---------------------------------------------------|

D:-2-----2-----2-----2--5--7--2-----2-----2-----2--1-2-4-2-1-4-2*--------------|

A:-2-----2-----2-----2--3--5--2-----2-----2-----2------------------------------|

E:-0-0-0-0-0-0-0-0-0-0--------0-0-0-0-0-0-0-0-0-0------------------------------|

. . . . . . . . . . . . . . . . . . . . . . . . . .

e:-----------------------------------------------------------------------------|

B:-----------------------------------------------------------------------------|

G:--------------------------5-----7--------------------------------------------|

D:-2-----2-----2-----2------5-----7--2-----2-----2-----2--5--7--6--3-----------|

A:-2-----2-----2-----2--3-3-3-5-5-5--2-----2-----2-----2--5--7--6--3-----------|

E:-0-0-0-0-0-0-0-0-0-0---------------0-0-0-0-0-0-0-0-0-0--3--5--4--1-----------|

. . . . . . . . . . . . . . . . . . . . . . . .

Riff

Play it three times

e:-----------------------------------------------------------------------------|

B:-----------------------------------------------------------------------------|

G:-----------4---6/------------------------------------------------------------|

D:-6---6-7------------7---4---6---6-4------------------------------------------|

A:---4-----4---4--------4---4---4-----4-7-4-6-4-6-7-4-6-4-3-4-6----------------|

E:-----------------------------------------------------------------------------|

. . . . . .

The fourth time :

e:-----------------------------------------------------------------------------|

B:-----------------------------------------------------------------------------|

G:-----------4---6/---------------2---4-----2-------8--------------------------|

D:-6---6-7------------7---4---4---2---4-----2---2---8--------------------------|

A:---4-----4---4--------4---4-4---0---2-----0---2---6--------------------------|

E:----------------------------2-----------------0------------------------------|

| . . . . .

e:----------------------------------------------12--11-------------------------|

B:--------------------------------10--12----10---------------------------------|

G:----------------------------11-----------------------------------------------|

D:-----------------------------------------------------------------------------|

A:-----------------------------------------------------------------------------|

E:-----------------------------------------------------------------------------|

Verse 1X

Chorus

The guitar enters after a while

e:--------------------|

B:--------------------|

G:--------------2-----|

D:-2-2-2-2-2-2--2-----|

A:-0-0-0-0-0-0--0-----|

E:--------------------|

. . . . . .

e:-----------------------------------------------------------------------------|

B:-----------------------------------------------------------------------------|

G:-----------------------------------------------------------------------------|

D:-4--------4--------4--------2--4--------4--------4--------2------------------|

A:-4--------4--------4--------2--4--------4--------4--------2------------------|

E:-2-2-2-2--2-2-2-2--2-2-2-2--0--2-2-2-2--2-2-2-2--2-2-2-2--0------------------|

. . . . . . . . . . . . . . . . . . . . . . . . . .

e:-----------------------------------------------------------------------------|

B:-----------------------------------------------------------------------------|

G:-8-----8-----8-----8-----8--6--8-----8-----8-----8-----8--6------------------|

D:-8-----8-----8-----8-----8--6--8-----8-----8-----8-----8--6------------------|

A:-6-6-6-6-6-6-6-6-6-6-6-6-6--4--6-6-6-6-6-6-6-6-6-6-6-6-6--4------------------|

E:-----------------------------------------------------------------------------|

. . . . . . . . . . . . . . . . . . . . . . . . . .

Repeat the chorus then play this two times :

e:-----------------------------------------------------------------------------|

B:---------------------------------3---5---6---5---3---5-----------------------|

G:---------------------------0-0-0---0---0---0---0---0---0---------------------|

D:---------2-3----------5-3----------------------------------------------------|

A:-0-0-0-0------0-0-0-0--------------------------------------------------------|

E:-----------------------------------------------------------------------------|

. . . . . . . . . . . . . . . . .

e:-----------------------------------------------------------------------------|

B:-----------------------------------5-------------------3---------------------|

G:---------------------------5-5-5h7---7-4---------------2-----2---------------|

D:---------2-3----------5-3----------------5-------3-----0-----2---------------|

A:-0-0-0-0------0-0-0-0----------------------------3-----------0---------------|

E:-------------------------------------------------1---------------------------|

. . . . . . . .

-- FantasMic part II

Guitar solo

e:-----------------------------------------------------------------------------|

B:---3~/10~5~-5h6/8--6h8/10~-----3~/10~5~-5h6/8---6-5-3~---------------------|

G:-5----------------------------5---------------------------5-4-2~---5-4-2~----|

D:-----------------------------------------------------------------------------|

A:-----------------------------------------------------------------------------|

E:-----------------------------------------------------------------------------|

e:-----------------------------------------------------------------------------|

B:-----------------------------------------------------------------------------|

G:---------------2-2-2-2-------------------------------------------------------|

D:-2-2-2-2-2-2-2-2-2-2-2-------------------------------------------------------|

A:-0-0-0-0-0-0-0-0-0-0-0-------------------------------------------------------|

E:-----------------------------------------------------------------------------|

. . . . . . . . . . .

-- FantasMic part III

e:-----------------------------------------------------------------------------|

B:-----------------------------------------------------------------------------|

G:--------------------7---5-------------------------7---5----------------------|

D:-5-5-7--5-7--5-7--7-7-3-5-5-7------7--5-7--5-7--7-7-3-5-5-7------------------|

A:-5-5-7--5-7--5-7--7-5-3-3-5-7------7--5-7--5-7--7-5-3-3-5-7------------------|

E:-3-3-5--3-5--3-5--5---1---3-5------5--3-5--3-5--5---1---3-5------------------|

. . . . . . . . . . . .

e:-----------------------------------------------------------------------------|

B:---------------------------------------------------2 TIMES-------------------|

G:------------------------------4-7-2------------------------------------------|

D:-4---------2-4---------2-4--4-4-7-2-2-4--------------------------------------|

A:-4---------2-4---------2-4--4-2-5-0-2-4--------------------------------------|

E:-2-2-2-2-2-0-2-2-2-2-2-0-2--2-------0-2--------------------------------------|

. . . . . . . . . .

Verse

e:-----------------------------------------------------------------------------|

B:-----------------------------------------------------------------------------|

G:-----------------------------------------------------7-------5-7-3-3---------|

D:-2---2-------3---3-------0---0-------2---2-------5---7---7-5-5-7-3-3---------|

A:---0---0-0-0---0---0-0-0---0---0-0-0---0---0-0-0-5---5---7-5-3-5-1-1---------|

E:-------------------------------------------------3-------5-3-----------------|

. . . . . . . . . . . . . . . .

e:-----------------------------------------------------------------------------|

B:-----------------------------------------------------------------------------|

G:-----------------------------------------------------7-----------------------|

D:-2---2-------3---3-------0---0-------2---2-------5---7---3---2-0-------------|

A:---0---0-0-0---0---0-0-0---0---0-0-0---0---0-0-0-5---5---3-------3-2---------|

E:-------------------------------------------------3-------1-------------------|

. . . . . . . . . . . . . . . .

Guitar solo

Lead guitar

e:-----------------------------------------------------------------------------|

B:---------------------------------------------------------------4 TIMES-------|

G:-------------4-4-6-----------------------------------------------------------|

D:-4-4-6-7-6-4-------7-6-------4-4-6-7-6-4-6---4-------------------------------|

A:-----------------------7-------------------7---------------------------------|

E:-----------------------------------------------------------------------------|

Rhythm guitar

e:-----------------------------------------------------------------------------|

B:---------------------------------------------------------------2 TIMES-------|

G:------------------------------4-7-2------------------------------------------|

D:-4---------2-4---------2-4--4-4-7-2-2-4--------------------------------------|

A:-4---------2-4---------2-4--4-2-5-0-2-4--------------------------------------|

E:-2-2-2-2-2-0-2-2-2-2-2-0-2--2-------0-2--------------------------------------|

. . . . . . . . . .

Verse

Then

e:---------------------|

B:---------------------|

G:---------------------|

D:-2-0------2-0--------|

A:-----3-2------3-2----|

E:---------------------|

Listen to the CD to hear how Emppu plays this :

e:-----------------------------------------------------------------------------|

B:-----------------------------------------------------------------------------|

G:-----------------------------------------------------------------------------|

D:-----------------------------------------------------------2h3p2-------------|

A:-----------------------1---------------------------1-------------3-2---------|

E:-0-0-0-0-1-0-0-0-0-1-0---0-1-0-0-0-0-1-0-0-0-0-1-0---0-1-0-----------1-------|

. . . . . . . . . . . . . . . . . . . . . . . . . . . . . . . . . . .

Tarja sings

e:-----------------------------------------------------------------------------|

B:-----------------------------------------------------------------------------|

G:-2---3---2----------2---3-------5------2---3---2----------2---3-------5------|

D:-2---3---2---2------2---3---3---5------2---3---2---2------2---3---3---5------|

A:-0---1---0---2------0---1---3---3------0---1---0---2------0---1---3---3------|

E:-------------0--------------1----------------------0--------------1----------|

e:-----------------------------------------------------------------------------|

B:-----------------------------------------------------------------------------|

G:-----------------------------------------------------------------------------|

D:-----------------------------------------------------------2h3p2-------------|

A:-----------------------1---------------------------1-------------3-2---------|

E:-0-0-0-0-1-0-0-0-0-1-0---0-1-0-0-0-0-1-0-0-0-0-1-0---0-1-0-----------1-------|

. . . . . . . . . . . . . . . . . . . . . . . . . . . . . . . . . . .

e:-----------------------------------------------------------------------------|

B:-----------------------------------------------------------------------------|

G:-----------------------------------------------------------------------------|

D:-------2-3-------5-3-------2-3-5--------2-3-------5-3-------2-3--------------|

A:-0-0-0-----0-0-0-----0-0-0-----5--0-0-0-----0-0-0-----0-0-0------------------|

E:-------------------------------3--------------------------------3-3-3--3-3-3-|

. . . . . . . . . . . . . . . . . . . . . . . .

e:-----------------------------------------------------------------------------|

B:-----------------------------------------------------------------------------|

G:-----------------------------------------------------------------------------|

D:-------2-3-------5-3-------2-3-5--------2-3-------5-3------------------------|

A:-0-0-0-----0-0-0-----0-0-0-----5--0-0-0-----0-0-0----------------------------|

E:-------------------------------3---------------------------------------------|

. . . . . . . . . . . . . . .

Chorus

e:-----------------------------------------------------------------------------|

B:-----------------------------------------------------------------------------|

G:-8-----8-----8-----8-----8--6--8-----8-----8-----8-----8--6------------------|

D:-8-----8-----8-----8-----8--6--8-----8-----8-----8-----8--6------------------|

A:-6-6-6-6-6-6-6-6-6-6-6-6-6--4--6-6-6-6-6-6-6-6-6-6-6-6-6--4------------------|

E:-----------------------------------------------------------------------------|

. . . . . . . . . . . . . . . . . . . . . . . . . .

e:-----------------------------------------------------------------------------|

B:-----------------------------------------------------------------------------|

G:-----------------------------------------------------------------------------|

D:-4-----4-----4-----4-----4--2--4-----4-----4-----4-----4--2------------------|

A:-4-----4-----4-----4-----4--2--4-----4-----4-----4-----4--2------------------|

E:-2-2-2-2-2-2-2-2-2-2-2-2-2--0--2-2-2-2-2-2-2-2-2-2-2-2-2--0------------------|

. . . . . . . . . . . . . . . . . . . . . . . . . .

e:-----------------------------------------------------------------------------|

B:-----------------------------------------------------------------------------|

G:-8-----8-----8-----8-----8--6--8-----8-----8-----8-----8--6------------------|

D:-8-----8-----8-----8-----8--6--8-----8-----8-----8-----8--6------------------|

A:-6-6-6-6-6-6-6-6-6-6-6-6-6--4--6-6-6-6-6-6-6-6-6-6-6-6-6--4------------------|

E:-----------------------------------------------------------------------------|

. . . . . . . . . . . . . . . . . . . . . . . . . .

e:-----------------------------------------------------------------------------|

B:-----------------------------------------------------------------------------|

G:----------------------------------------------------------------7------------|

D:-7-----7-----7-----7-----7--5--7-----7-----7-----7-----7--5--3--7------------|

A:-7-----7-----7-----7-----7--5--7-----7-----7-----7-----7--5--3--5------------|

E:-5-5-5-5-5-5-5-5-5-5-5-5-5--3--5-5-5-5-5-5-5-5-5-5-5-5-5--3--1------2 TIMES--|

. . . . . . . . . . . . . . . . . . . . . . . . . .

e:-----------------------------------------------------------------------------|

B:-----------------------------------------------------------------------------|

G:-----------------------------------------------------------------------------|

D:-------2-3--------5-3--------2-3--5-5-5--5--7-------------------------------|

A:-0-0-0------0-0-0------0-0-0------5-5-5--5--7-------------------------------|

E:----------------------------------3-3-3--3--5-------------------------------|

FreakMen

Get this song at:  amazon.com sheetmusicplus.com

Share your thoughts

0 Comments found