Nightwish

Nightwish - Fantasmic bass tab

G||------------------|------------------|------------------|------------------|

D||------------------|------------------|------------------|------------------|

A||------------------|------------------|------------------|------------------|

E||------------------|------------------|------------------|------------------|

--------------------|-------------------|--------------------|

--------------------|-------------------|--------------------|

--------------------|-------------------|--------------------|

--0--------------0--|--0----------------|--0--------------0--|

---------------------------|----------------------|-----------------------|

---------------------------|----------------------|-----------------------|

---------------------------|----------------------|-----------------------|

--0------------------------|--0----0----0----0----|--0----0----0----0--0--|

----------------------|-----------------------|----------------------|

----------------------|-----------------------|----------------------|

----------------------|-----------------------|----------------------|

--0----0----0----0----|--0----0----0----0--0--|--0----0----0----0----|

-----------------------|----------------------|---------------------|

-----------------------|----------------------|---------------------|

-----------------------|----------------------|------3---5----------|

--0----0----0----0--0--|--0----0----0----0----|--3------------------|

---------------------|----------------------|-----------------------|

---------------------|----------------------|-----------------------|

--3------------------|----------------------|-----------------------|

------3---2----------|--0----0----0----0----|--0----0----0----0--0--|

----------------------|----------------------|----------------------|

----------------------|----------------------|----------------------|

----------------------|--5-------------------|----------------------|

--0----0----0----0----|------3---5---1-------|--0----0----0----0----|

-----------------------|----------------------|---------------------|

-----------------------|----------------------|---------------------|

-----------------------|----------------------|------3---5----------|

--0----0----0----0--0--|--0----0----0----0----|--3------------------|

---------------------|------------------------------|--------------------------|

---------------------|------------------------------|--------------------------|

--3------------------|------------------------------|----------------3----5----|

------3---2----------|--0--0-0-0--0-0-0--0-0-0--0-0-|--0--0-0-0--0-0-----------|

------------------------------|-------------------------|

------------------------------|-------------------------|

------------------------------|-------------------------|

--0--0-0-0--0-0-0--0-0-0--0-0-|--0--0-0-0--0-0-0--------|

------------------------------|------------------------------|

------------------------------|------------------------------|

------------------------------|----------------3-3-3--5-5-5--|

--0--0-0-0--0-0-0--0-0-0--0-0-|--0--0-0-0--0-0---------------|

------------------------------|----------------------------|

------------------------------|----------------------------|

------------------------------|----------------------------|

--0--0-0-0--0-0-0--0-0-0--0-0-|--0--0-0-0--0-0-3--5--4--1--|

------------------------------|--------------------------|

------------------------------|--------------------------|

------------------------------|----------------3----5----|

--0--0-0-0--0-0-0--0-0-0--0-0-|--0--0-0-0--0-0-----------|

------------------------------|-------------------------|

------------------------------|-------------------------|

------------------------------|-------------------------|

--0--0-0-0--0-0-0--0-0-0--0-0-|--0--0-0-0--0-0-0--------|

------------------------------|------------------------------|

------------------------------|------------------------------|

------------------------------|----------------3-3-3--5-5-5--|

--0--0-0-0--0-0-0--0-0-0--0-0-|--0--0-0-0--0-0---------------|

------------------------------|----------------------------|

------------------------------|----------------------------|

------------------------------|----------------------------|

--0--0-0-0--0-0-0--0-0-0--0-0-|--0--0-0-0--0-0-3--5--4--1--|

----------------------------------|----------------------------------|

----------------------------------|----------------------------------|

--4-4-4-4-4-4-4-4-4-4-4-4-4-4-4-4-|--4-4-4-4-4-4-4-4-4-4-4-4-4-4-4-4-|

----------------------------------|----------------------------------|

----------------------------------|----------------------------------|

----------------------------------|----------------------------------|

--4-4-4-4-4-4-4-4-4-4-4-4-4-4-4-4-|--4-4-4-4-4-4-4-4-4-4-4-4-4-4-4-4-|

----------------------------------|----------------------------------|

----------------------------------|----------------------------------|

----------------------------------|----------------------------------|

--4-4-4-4-4-4-4-4-4-4-4-4-4-4-4-4-|--4-4-4-4-4-4-4-4-4-4-4-4-4-4-4-4-|

----------------------------------|----------------------------------|

----------------------------------|---------------------|---------------------|

----------------------------------|---------------------|---------------------|

--4-4-4-4-4-4-4-4-4-4-4-4-4-4-4-4-|------2---0----------|--0-------6----------|

----------------------------------|--0------------------|------0--------------|

------------------------------|--------------------------|

------------------------------|--------------------------|

------------------------------|----------------3----5----|

--0--0-0-0--0-0-0--0-0-0--0-0-|--0--0-0-0--0-0-----------|

------------------------------|-------------------------|

------------------------------|-------------------------|

------------------------------|-------------------------|

--0--0-0-0--0-0-0--0-0-0--0-0-|--0--0-0-0--0-0-0--------|

------------------------------|------------------------------|

------------------------------|------------------------------|

------------------------------|----------------3-3-3--5-5-5--|

--0--0-0-0--0-0-0--0-0-0--0-0-|--0--0-0-0--0-0---------------|

------------------------------|----------------------------|----|----|----|----|

------------------------------|----------------------------|----|----|----|----|

------------------------------|----------------------------|----|----|----|----|

--0--0-0-0--0-0-0--0-0-0--0-0-|--0--0-0-0--0-0-3--5--4--1--|----|----|----|----|

----|----|----|----|----|----|----|-------------------|

----|----|----|----|----|----|----|-------------------|

----|----|----|----|----|----|----|-------------------|

----|----|----|----|----|----|----|--5----------------|

------------------------------|-------------------------|

------------------------------|-------------------------|

------------------------------|-------------------------|

--2-2-2-2-2--2--2-2-2-2-2--2--|--2-2-2-2-2--2--0--------|

------------------------------|-------------------------|

------------------------------|-------------------------|

------------------------------|-------------------------|

--2-2-2-2-2--2--2-2-2-2-2--2--|--2-2-2-2-2--2--0--------|

----------------------------------|----------------------------------|

----------------------------------|----------------------------------|

--6-6-6-6-6-6-6-6-6-6-6-6-6-6-6-6-|--6-6-6-6-6-6-6-6-4-4-4-4-4-4-4-4-|

----------------------------------|----------------------------------|

----------------------------------|----------------------------------|

----------------------------------|----------------------------------|

--6-6-6-6-6-6-6-6-6-6-6-6-6-6-6-6-|--6-6-6-6-6-6-6-6-4-4-4-4-4-4-4-4-|

----------------------------------|----------------------------------|

------------------------------|-------------------------|

------------------------------|-------------------------|

------------------------------|-------------------------|

--2-2-2-2-2--2--2-2-2-2-2--2--|--2-2-2-2-2--2--0--------|

------------------------------|-------------------------|

------------------------------|-------------------------|

------------------------------|-------------------------|

--2-2-2-2-2--2--2-2-2-2-2--2--|--2-2-2-2-2--2--0--------|

----------------------------------|----------------------------------|

----------------------------------|----------------------------------|

--6-6-6-6-6-6-6-6-6-6-6-6-6-6-6-6-|--6-6-6-6-6-6-6-6-4-4-4-4-4-4-4-4-|

----------------------------------|----------------------------------|

----------------------------------|----------------------------------|

----------------------------------|----------------------------------|

--6-6-6-6-6-6-6-6-6-6-6-6-6-6-6-6-|--6-6-6-6-6-6-6-6-4-4-4-4-4-4-4-4-|

----------------------------------|----------------------------------|

--------------------------|----------------------------------|

--------------------------|----------------------------------|

--0-0-0-0-----0-0-0-0-----|----------------------------------|

--------------------------|--3-3-3-3-3-3-3-3-3-3-3-3-3-3-3-3-|

--------------------------|----------------------------------|

--------------------------|----------------------------------|

--0-0-0-0-----0-0-0-0-----|--3-3-3-3-3-3-3-3-3-3-3-3-3-3-3-3-|

--------------------------|----------------------------------|

----------------------------------|----------------------------------|

----------------------------------|----------------------------------|

----------------------------------|--5-5-5-5-5-5-5-5-5-5-5-5-5-5-5-5-|

--1-1-1-1-1-1-1-1-1-1-1-1-1-1-1-1-|----------------------------------|

----------------------------------|----------------------------------|

----------------------------------|----------------------------------|

----------------------------------|----------------------------------|

--5-5-5-5-5-5-5-5-5-5-5-5-5-5-5-5-|--5-5-5-5-5-5-5-5-5-5-5-5-5-5-5-5-|

--------------------------|----------------------------------|

--------------------------|----------------------------------|

--0-0-0-0-----0-0-0-0-----|----------------------------------|

--------------------------|--3-3-3-3-3-3-3-3-3-3-3-3-3-3-3-3-|

--------------------------|----------------------------------|

--------------------------|----------------------------------|

--0-0-0-0-----0-0-0-0-----|--3-3-3-3-3-3-3-3-3-3-3-3-3-3-3-3-|

--------------------------|----------------------------------|

----------------------------------|----------------------------------|

----------------------------------|----------------------------------|

----------------------------------|--5-5-5-5-5-5-5-5-5-5-5-5-5-5-5-5-|

--1-1-1-1-1-1-1-1-1-1-1-1-1-1-1-1-|----------------------------------|

----------------------------------|----------------------------------|

----------------------------------|----------------------------------|

----------------------------------|----------------------------------|

--5-5-5-5-5-5-5-5-5-5-5-5-5-5-5-5-|--5-5-5-5-5-5-5-5-5-5-5-5-5-5-5-5-|

-------------------|------------------|------------------|------------------|

-------------------|------------------|------------------|------------------|

-------------------|------------------|------------------|------------------|

--5----------------|------------------|------------------|------------------|

------------------|------------------|------------------|------------------|

------------------|------------------|------------------|------------------|

------------------|------------------|------------------|------------------|

------------------|------------------|------------------|------------------|

------------------|------------------|------------------|------------------|

------------------|------------------|------------------|------------------|

------------------|------------------|------------------|------------------|

------------------|------------------|------------------|------------------|

------------------|------------------|------------------|------------------|

------------------|------------------|------------------|------------------|

------------------|------------------|------------------|------------------|

------------------|------------------|------------------|------------------|

------------------|------------------|------------------|------------------|

------------------|------------------|------------------|------------------|

------------------|------------------|------------------|------------------|

------------------|------------------|------------------|------------------|

------------------|------------------|------------------|------------------|

------------------|------------------|------------------|------------------|

------------------|------------------|------------------|------------------|

------------------|------------------|------------------|------------------|

------------------|------------------|------------------|------------------|

------------------|------------------|------------------|------------------|

------------------|------------------|------------------|------------------|

------------------|------------------|------------------|------------------|

------------------|------------------|------------------|------------------|

------------------|------------------|------------------|------------------|

------------------|------------------|------------------|------------------|

------------------|------------------|------------------|------------------|

------------------|------------------|------------------|------------------|

------------------|------------------|------------------|------------------|

------------------|------------------|------------------|------------------|

------------------|------------------|------------------|------------------|

------------------|------------------|------------------|------------------|

------------------|------------------|------------------|------------------|

------------------|------------------|------------------|------------------|

------------------|------------------|------------------|------------------|

------------------|------------------|------------------|------------------|

------------------|------------------|------------------|------------------|

------------------|------------------|------------------|------------------|

------------------|------------------|------------------|------------------|

------------------|------------------|------------------|------------------|

------------------|------------------|------------------|------------------|

------------------|------------------|------------------|------------------|

------------------|------------------|------------------|------------------|

------------------|------------------|------------------|------------------|

------------------|------------------|------------------|------------------|

------------------|------------------|------------------|------------------|

------------------|------------------|------------------|------------------|

------------------|------------------|------------------|------------------|

------------------|------------------|------------------|------------------|

------------------|------------------|------------------|------------------|

------------------|------------------|------------------|------------------|

------------------|------------------|------------------|------------------|

------------------|------------------|------------------|------------------|

------------------|------------------|------------------|------------------|

------------------|------------------|------------------|------------------|

------------------|------------------|------------------|------------------|

------------------|------------------|------------------|------------------|

------------------|------------------|------------------|------------------|

------------------|------------------|------------------|------------------|

--------------------------|--------------------------|

--------------------------|--------------------------|

--------------------------|--------------------------|

--5--5--5--5--5--5--5--5--|--5--5--5--5--5--5--5--5--|

--------------------------|-------------------------|--------------------|

--------------------------|-------------------------|--------------------|

--------------------------|-------------------------|--------------------|

--5--5--5--5--5--5--5--5--|--5--5--5--5--5--3----3--|--5--------------3--|

---------------------|---------------------|---------------------|

---------------------|---------------------|---------------------|

---------------------|-----------5----8----|------3--------------|

--5----------3--5----|--5------------------|-------------3--5----|

--------------------|---------------------|---------------------|

--------------------|---------------------|---------------------|

--------------------|---------------------|-----------5----8----|

--5--------------3--|--5----------3--5----|--5------------------|

---------------------|------------------------------|

---------------------|------------------------------|

------3--------------|------------------------------|

-------------3--5----|--2--2-2-2--2-2-2--2-2-2--2-2-|

---------------------------|--------------------------|---------------------|

---------------------------|--------------------------|---------------------|

---------------------------|----------------2----5----|------0--------------|

--2--2-2-2--2-2-2--0--2----|--2--2-2-2--2-2-----------|-------------0--2----|

------------------------------|---------------------------|

------------------------------|---------------------------|

------------------------------|---------------------------|

--2--2-2-2--2-2-2--2-2-2--2-2-|--2--2-2-2--2-2-2--0--2----|

--------------------------|---------------------|

--------------------------|---------------------|

----------------2----5----|------0--------------|

--2--2-2-2--2-2-----------|-------------0--2----|

----------------------------------|----------------------------------|

----------------------------------|----------------------------------|

----------------------------------|----------------------------------|

--5-5-5-5-5-5-5-5-5-5-5-5-5-5-5-5-|--5-5-5-5-5-5-5-5-5-5-5-5-5-5-5-5-|

----------------------------------|------------------------|

----------------------------------|------------------------|

------------------5-5-5-5-5-5-5-5-|----------3---5---1--1--|

--3-3-3-3-3-3-3-3-----------------|--5---3-----------------|

----------------------------------|----------------------------------|

----------------------------------|----------------------------------|

----------------------------------|----------------------------------|

--5-5-5-5-5-5-5-5-5-5-5-5-5-5-5-5-|--5-5-5-5-5-5-5-5-5-5-5-5-5-5-5-5-|

----------------------------------|------------------------------|

----------------------------------|------------------2--0--------|

------------------5-5-5-5-5-5-5-5-|------------------------3--2--|

--3-3-3-3-3-3-3-3-----------------|--1-1-1-1-1-1-1-1-------------|

------------------------------|---------------------------|

------------------------------|---------------------------|

------------------------------|---------------------------|

--2--2-2-2--2-2-2--2-2-2--2-2-|--2--2-2-2--2-2-2--0--2----|

--------------------------|---------------------|

--------------------------|---------------------|

----------------2----5----|------0--------------|

--2--2-2-2--2-2-----------|-------------0--2----|

----------------------------------|------------------------------|

----------------------------------|------------------------------|

----------------------------------|------------------------------|

--2-2-2-2-2-2-2-2-2-2-2-2-2-2-2-2-|--2-2-2-2-2-2-2-2-2-2-0--2----|

----------------------------|---------------------|

----------------------------|---------------------|

------------------2----5----|------0--------------|

--2-2-2-2-2-2-2-2-----------|-------------0--2----|

----------------------------------|----------------------------------|

----------------------------------|----------------------------------|

----------------------------------|----------------------------------|

--5-5-5-5-5-5-5-5-5-5-5-5-5-5-5-5-|--5-5-5-5-5-5-5-5-5-5-5-5-5-5-5-5-|

----------------------------------|------------------------|

----------------------------------|------------------------|

------------------5-5-5-5-5-5-5-5-|----------3---5---1--1--|

--3-3-3-3-3-3-3-3-----------------|--5---3-----------------|

----------------------------------|----------------------------------|

----------------------------------|----------------------------------|

----------------------------------|----------------------------------|

--5-5-5-5-5-5-5-5-5-5-5-5-5-5-5-5-|--5-5-5-5-5-5-5-5-5-5-5-5-5-5-5-5-|

----------------------------------|------------------------------|

----------------------------------|------------------2--0--------|

------------------5-5-5-5-5-5-5-5-|------------------------3--2--|

--3-3-3-3-3-3-3-3-----------------|--1-1-1-1-1-1-1-1-------------|

--------------------------|----------------------------|

--2--0--------2--0--------|----------------------------|

--------3--2--------3--2--|----------------------------|

--------------------------|--0--0-0-1--0--0--0-0-1--0--|

-----------------------------|----------------------------|

-----------------------------|----------------------------|

--1--------------------------|----------------------------|

-----0--1--0-0-0--0-0-0--0-0-|--0--0-0-1--0--0--0-0-1--0--|

------------------------------|----------------------------|

------------------2-3-2-------|----------------------------|

--1---------------------3-2---|----------------------------|

-----0--1--0--0-0-----------1-|--0--0-0-1--0--0--0-0-1--0--|

-----------------------------|----------------------------|

-----------------------------|----------------------------|

--1--------------------------|----------------------------|

-----0--1--0-0-0--0-0-0--0-0-|--0--0-0-1--0--0--0-0-1--0--|

------------------------------|-------------------|-------------------|

------------------2-3-2-------|-------------------|-------------------|

--1---------------------3-2---|--0----------------|--1----------------|

-----0--1--0--0-0-----------1-|-------------------|-------------------|

-------------------|-------------------|-------------------|-------------------|

-------------------|-------------------|-------------------|-------------------|

--0----------------|-------------------|--0----------------|--1----------------|

-------------------|--0----------------|-------------------|-------------------|

-------------------|-------------------|-------------------|-------------------|

-------------------|-------------------|-------------------|-------------------|

-------------------|--3----------------|--0----------------|--1----------------|

--1----------------|-------------------|-------------------|-------------------|

-------------------|-------------------|-------------------|-------------------|

-------------------|-------------------|-------------------|-------------------|

--0----------------|-------------------|--0----------------|--1----------------|

-------------------|--0----------------|-------------------|-------------------|

-------------------|-------------------|----------------------------|

-------------------|-------------------|----------------------------|

-------------------|--3----------------|----------------------------|

--1----------------|-------------------|--0--0-0-1--0--0--0-0-1--0--|

-----------------------------|----------------------------|

-----------------------------|----------------------------|

--1--------------------------|----------------------------|

-----0--1--0-0-0--0-0-0--0-0-|--0--0-0-1--0--0--0-0-1--0--|

------------------------------|----------------------------|

------------------2-3-2-------|----------------------------|

--1---------------------3-2---|----------------------------|

-----0--1--0--0-0-----------1-|--0--0-0-1--0--0--0-0-1--0--|

-----------------------------|----------------------------|

-----------------------------|----------------------------|

--1--------------------------|----------------------------|

-----0--1--0-0-0--0-0-0--0-0-|--0--0-0-1--0--0--0-0-1--0--|

------------------------------|------------------------|----------------------|

------------------2-3-2-------|------------------------|----------------------|

--1---------------------3-2---|--0-0-0------0-0-0------|--0-0-0---------------|

-----0--1--0--0-0-----------1-|------------------------|-------------3--------|

------------------------|---------------------------|------------------------|

------------------------|---------------------------|------------------------|

--0-0-0------0-0-0------|--0-0-0--------------------|--0-0-0------0-0-0------|

------------------------|-------------3-3-3--3-3-3--|------------------------|

----------------------|------------------------|----|

----------------------|------------------------|----|

--0-0-0---------------|--0-0-0------0-0-0------|----|

-------------3--------|------------------------|----|

----------------------------------|----------------------------------|

----------------------------------|----------------------------------|

--6-6-6-6-6-6-6-6-6-6-6-6-6-6-6-6-|--6-6-6-6-6-6-6-6-4-4-4-4-4-4-4-4-|

----------------------------------|----------------------------------|

----------------------------------|----------------------------------|

----------------------------------|----------------------------------|

--6-6-6-6-6-6-6-6-6-6-6-6-6-6-6-6-|--6-6-6-6-6-6-6-6-4-4-4-4-4-4-4-4-|

----------------------------------|----------------------------------|

----------------------------------|----------------------------------|

----------------------------------|----------------------------------|

----------------------------------|----------------------------------|

--2-2-2-2-2-2-2-2-2-2-2-2-2-2-2-2-|--2-2-2-2-2-2-2-2-0-0-0-0-0-0-0-0-|

----------------------------------|----------------------------------|

----------------------------------|----------------------------------|

----------------------------------|----------------------------------|

--2-2-2-2-2-2-2-2-2-2-2-2-2-2-2-2-|--2-2-2-2-2-2-2-2-0-0-0-0-0-0-0-0-|

----------------------------------|----------------------------------|

----------------------------------|----------------------------------|

--6-6-6-6-6-6-6-6-6-6-6-6-6-6-6-6-|--6-6-6-6-6-6-6-6-4-4-4-4-4-4-4-4-|

----------------------------------|----------------------------------|

----------------------------------|----------------------------------|---|

----------------------------------|----------------------------------|---|

--6-6-6-6-6-6-6-6-6-6-6-6-6-6-6-6-|--6-6-6-6-6-6-6-6-4-4-4-4-4-4-4-4-|---|

----------------------------------|----------------------------------|---|

----------------------------------|----------------------------------|

----------------------------------|----------------------------------|

----------------------------------|----------------------------------|

--5-5-5-5-5-5-5-5-5-5-5-5-5-5-5-5-|--5-5-5-5-5-5-5-5-3-3-3-3-3-3-3-3-|

----------------------------------|----------------------------------|

----------------------------------|----------------------------------|

----------------------------------|----------------------------------|

--5-5-5-5-5-5-5-5-5-5-5-5-5-5-5-5-|--5-5-5-5-5-5-5-5-3-3-3-3-3-3-3-3-|

-------------------|-------------------|----------------------------------|

-------------------|-------------------|----------------------------------|

-------------------|--5----------------|----------------------------------|

--1----------------|-------------------|--5-5-5-5-5-5-5-5-5-5-5-5-5-5-5-5-|

----------------------------------|----------------------------------|

----------------------------------|----------------------------------|

----------------------------------|----------------------------------|

--5-5-5-5-5-5-5-5-3-3-3-3-3-3-3-3-|--5-5-5-5-5-5-5-5-5-5-5-5-5-5-5-5-|

----------------------------------|-------------------|-------------------|

----------------------------------|-------------------|-------------------|

----------------------------------|-------------------|--5----------------|

--5-5-5-5-5-5-5-5-3-3-3-3-3-3-3-3-|--1----------------|-------------------|

------------------------|-------------------------|-------------------||

------------------------|-------------------------|-------------------||

--0-0-0------0-0-0------|--0-0-0------------------|-------------------||

------------------------|---------------3-3-3--3--|--5----------------||

Taken from The BassMasta -- http://www.tabs-database.com

Get this song at:  amazon.com sheetmusicplus.com

Share your thoughts

0 Comments found