Nightwish

Nightwish - Ever Dream Live guitar tab

-------------------------------------------------------------------------------

Ever Dream - Nightwish

-------------------------------------------------------------------------------

Tabbed by: littleleo88

Email: webmaster at tabs-database.com.com

Tuning: D standard (DGCFAD)

This is as it is performed on the End of an Era DVD, performed at Hartwell arena in Helsinki.

Please do not leave comments saying wrong tuning etc. The tuning for the live

of this song is indeed DGCFAD.

Intro 1:07

e|--------------------------------------------------------------------------|

B|--------------------------------------------------------------------------|

G|--------------------------------------------------------------------------|

D|-----2-2-2-2--2-2-2-2--2-2-2-2-5-5-2-2-2-2--2-2-2-2--2-2-2-2-5-5----------|

A|-11\\-0-0-0-0--0-0-0-0--0-0-0-0-5-5-0-0-0-0--0-0-0-0--0-0-0-0-5-5----------|

E|-------------------------------3-3---------------------------3-3----------|

. . . . . . . . . . . . . . . . . . . . . . . .

e|--------------------------------------------------------------------------|

B|--------------------------------------------------------------------------|

G|----------------------------------7------------5--------------------------|

D|-2-2-2-2--2-2-2-2--2-2-2-2-5-5----7------------5------------7-------------|

A|-0-0-0-0--0-0-0-0--0-0-0-0-5-5----5------------3------------7-------------|

E|---------------------------3-3------------------------------5-------------|

. . . . . . . . . . . .

e|--------------------------------------------------------------------------|

B|--------------------------------------------------------------------------|

G|--------------------------------------------------------------------------|

D|-----2-2-2-2--2-2-2-2--2-2-2-2-5-5-2-2-2-2--2-2-2-2--2-2-2-2-5-5----------|

A|-----0-0-0-0--0-0-0-0--0-0-0-0-5-5-0-0-0-0--0-0-0-0--0-0-0-0-5-5----------|

E|-------------------------------3-3---------------------------3-3----------|

. . . . . . . . . . . . . . . . . . . . . . . .

e|--------------------------------------------------------------------------|

B|--------------------------------------------------------------------------|

G|----------------------------------7------------5--------------------------|

D|-2-2-2-2--2-2-2-2--2-2-2-2-5-5----7------------5------------7----\\--------|

A|-0-0-0-0--0-0-0-0--0-0-0-0-5-5----5------------3------------7-----\\-------|

E|---------------------------3-3------------------------------5------\\/-----|

. . . . . . . . . . . .

Verse 1:49

e|-------------------------------------------------------------------------------|

B|-------------------------------------------------------------------------------|

G|----------2--------------------------------------------------------------------|

D|-3-3-3-3--2-2-2-2-2--2-2-2-2--2-2-2-2--2-2-5-5-5-5--5-5-5-5--5-5-5-5--4-4-4-4--|

A|-3-3-3-3--0-0-0-0-0--0-0-0-0--0-0-0-0--0-0-3-3-3-3--3-3-3-3--3-3-3-3--2-2-2-2--|

E|-1-1-1-1-----------------------------------------------------------------------|

. . . . . . . . . . . . . . . . . . . . . . . . . . . . . .

e|---------------------------------------------------------------------------|

B|---------------------------------------------------------------------------|

G|---------------------------------------------------------------------------|

D|-2-2-2-2--2-2-2-2--2-2-2-2--2-2-2-2--3-----------5-------------------------|

A|-0-0-0-0--0-0-0-0--0-0-0-0--0-0-0-0--3-----------5-------------------------|

E|-------------------------------------1-----------3------------3/21\\3-------|

. . . . . . . . . . . . . . .

Chorus 2:04

e|-----------------------------------------------------------------------------------------|

B|-----------------6-----5---3----------------------------------------6-----5---3----------|

G|-2-----2-----2-------------------2-----2-----2------2-----2-----2------------------------|

D|-2-----2-----2-------------------2-----2-----2---5--2-----2-----2-------------------3-5--|

A|-0-0-0-0-0-0-0-0---0-0---0---0-0-0-0-0-0-0-0-0-0-5--0-0-0-0-0-0-0-0---0-0---0---0-0-3-5--|

E|-------------------------------------------------3----------------------------------1-3--|

. . . . . . . . . . . . . . . . . . . . . . . . .

e|-------------------------------------------------------------------------------|

B|-----------------6-----5---3---------------------------------------------------|

G|-2-----2-----2-------------------5--------------2------------------------------|

D|-2-----2-----2-------------------5------5-------2--------3-----5---------------|

A|-0-0-0-0-0-0-0-0---0-0---0---0-0-3------5-------0--------3-----5---------------|

E|----------------------------------------3----------------1-----3---------------|

. . . . . . . . . .

e|--------------------------------------------------------------------------|

B|--------------------------------------------------------------------------|

G|--------------------------------------------------------------------------|

D|-----2-2-2-2--2-2-2-2--2-2-2-2-5-5-2-2-2-2--2-2-2-2--2-2-2-2-5-5----------|

A|-----0-0-0-0--0-0-0-0--0-0-0-0-5-5-0-0-0-0--0-0-0-0--0-0-0-0-5-5----------|

E|-------------------------------3-3---------------------------3-3----------|

. . . . . . . . . . . . . . . . . . . . . . . .

e|--------------------------------------------------------------------------|

B|--------------------------------------------------------------------------|

G|----------------------------------7------------5--------------------------|

D|-2-2-2-2--2-2-2-2--2-2-2-2-5-5----7------------5--------------------------|

A|-0-0-0-0--0-0-0-0--0-0-0-0-5-5----5------------3--------------------------|

E|---------------------------3-3--------------------------------------------|

. . . . . . . . . . . .

2:41

e|---------------------------------------------------------------------------|

B|---------------------------------------------------------------------------|

G|-2-------------------------------------------------------------------------|

D|-2-2-2-2-2--2-2-2-2--2-2-2-2--2-2-5-5-5-5--5-5-5-5--5-5-5-5--Added by tabs-database.com and our distinguished partners

Get this song at:  amazon.com sheetmusicplus.com

Share your thoughts

0 Comments found