Nightwish

Nightwish - Ever Dream guitar tab

Gm Eb/G Gm F

e:-3---3-5-6---3---|-3---------1-3---|-3---3-5-6---5-6-|-8---8-6-5-----5-|

B:---3-------3---3-|-----4---4-------|---3-------3-----|---6-------6-8---|

G:-----------------|---3---3-------3-|-----------------|-----------------|

D:-----------------|-----------------|-----------------|-----------------|

A:-----------------|-----------------|-----------------|-----------------|

E:-----------------|-----------------|-----------------|-----------------|

|

e:---------3-------|---------3-------|---------3-------|---------1-------|

H:-----3-----------|-----4-----------|-----3-----------|-----1-----------|

G:-0---------------|-0---------------|-0---------------|-----------------|

D:-----------------|-----------------|-----------------|-3---------------|

A:-----------------|-----------------|-----------------|-----------------|

E:-----------------|-----------------|-----------------|-----------------|

Gm Eb/G Cm F

e:-3---3-5-6---3---|-3---------1-3---|-----------------|-6---5---3-------|

B:---3-------3---3-|-----4---4-------|-4---4-6-8-4-6-8-|-------------6---|

G:-----------------|---3---3-------3-|---5-------------|---5---5---5---5-|

D:-----------------|-----------------|-----------------|-----------------|

A:-----------------|-----------------|-----------------|-----------------|

E:-----------------|-----------------|-----------------|-----------------|

|

e:---------3-------|---------3-------|-----------------|---------1-------|

H:-----3-----------|-----4-----------|---------1-------|-----1-----------|

G:-0---------------|-0---------------|-----0-----------|-----------------|

D:-----------------|-----------------|-----------------|-3---------------|

A:-----------------|-----------------|-3---------------|-----------------|

E:-----------------|-----------------|-----------------|-----------------|

|

e:-----------------|-----------------|-8-------6-------|-5---------------|

H:-----------------|-----------------|-----------------|-----------------|

G:-----------------|-----------------|-----------------|-----------------|

D:-----------------|-----------------|-----------------|-----------------|

A:-----------------|-----------------|-----------------|-----------------|

E:-----------------|-----------------|-----------------|-----------------|

Gm Eb/G Bb F

e:-3---3-5-6---3---|-3---------1-3---|-6---6-8-10---6--|-8---8-6-5-1-3-5-|

B:---3-------3---3-|-----4---4-------|---6--------6---6|---6-------------|

G:-----------------|---3---3-------3-|-----------------|-----------------|

D:-----------------|-----------------|-----------------|-----------------|

A:-----------------|-----------------|-----------------|-----------------|

E:-----------------|-----------------|-----------------|-----------------|

|

e:---------3-------|---------3-------|----------6------|---------1-------|

H:-----3-----------|-----4-----------|-----6-----------|-----1-----------|

G:-0---------------|-0---------------|-3---------------|-----------------|

D:-----------------|-----------------|-----------------|-3---------------|

A:-----------------|-----------------|-----------------|-----------------|

E:-----------------|-----------------|-----------------|-----------------|

|

e:-10--------------|-11--------------|-10-------13-----|-13------11------|

H:-----------------|-----------------|-----------------|-----------------|

G:-----------------|-----------------|-----------------|-----------------|

D:-----------------|-----------------|-----------------|-----------------|

A:-----------------|-----------------|-----------------|-----------------|

E:-----------------|-----------------|-----------------|-----------------|

Gm Eb/G F F

e:-3---3-5-6---3---|-3---------1-3---|-----6---5-------|-----6---5-------|

H:---3-------3---3-|-----4---4-------|-6-----------8-6-|---6---------8---|

G:-----------------|---3---3-------3-|---5---5---5-----|-5-----5---5---5-|

D:-----------------|-----------------|-----------------|-----------------|

A:-----------------|-----------------|-----------------|-----------------|

E:-----------------|-----------------|-----------------|-----------------|

|

e:---------3-------|---------3-------|---------1-------|---------1-------|

H:-----3-----------|-----4-----------|-----1-----------|-----1-----------|

G:-0---------------|-0---------------|-----------------|-----------------|

D:-----------------|-----------------|-3---------------|-3---------------|

A:-----------------|-----------------|-----------------|-----------------|

E:-----------------|-----------------|-----------------|-----------------|

|

e:-10--------------|-10------8-------|-8---------------|-8---------------|

H:-----------------|-----------------|-----------------|-----------------|

G:-----------------|-----------------|-----------------|-----------------|

D:-----------------|-----------------|-----------------|-----------------|

A:-----------------|-----------------|-----------------|-----------------|

E:-----------------|-----------------|-----------------|-----------------|

F F

e:-----6---5-------|-----6---5-------||

H:-6-----------8-6-|---6---------6---||

G:---5---5---5-----|-5-----5---5---5-||

D:-----------------|-----------------||

A:-----------------|-----------------||

E:-----------------|-----------------||

||

e:-8---------------|-8---------------||

H:-----------------|-----------------||

G:-----------------|-----------------||

D:-----------------|-----------------||

A:-----------------|-----------------||

E:-----------------|-----------------||

||

e:-----------------|-----------------||

H:-----------------|-----------------||

G:-0---------------|-2---------------||

D:-----------------|-----------------||

A:-----------------|-----------------||

E:-----------------|-----------------||

Gm Cm F Gm Cm Bb F

e:-6-6-6--8-8-|8--5-5-5-|-6-6-6--11-11-|11--10-10-10---8-|

H:-8-8-8--8-8-|8--6-6-6-|-8-8-8--13-13-|13--11-11-11--10-|

G:-7-7-7--8-8-|8--5-5-5-|-7-7-7--12-12-|12--10-10-10--10-|

D:------------|---------|--------------|-----------------|

A:------------|---------|--------------|-----------------|

E:------------|---------|--------------|-----------------|

|

e:------------|---------|--------------|-----------------|

H:------------|---------|--------------|-----------------|

G:--------5-5-|5--------|---------5--5-|-5---3--3--3-----|

D:-5-5-5--5-5-|5--3-3-3-|-5-5-5---5--5-|-5---3--3--3---3-|

A:-5-5-5--3-3-|3--3-3-3-|-5-5-5---3--3-|-3---1--1--1---3-|

E:-3-3-3------|---1-1-1-|-3-3-3--------|---------------1-|

____________ _______________

|1. ||2. ||

Gm Cm F Cm F |Gm ||Gm ||

e:-6-6-6--8-8-|8--5-5-5-|-11-10-8-----------|------------||---|---|---|---||

H:-8-8-8--8-8-|8--6-6-6-|---------11-10-8---|-8----------||-8-|---|---|---||

G:-7-7-7--8-8-|8--5-5-5-|----------------11-|-----------*||---|---|---|---||

D:------------|---------|-------------------|-----------*||---|---|---|---||

A:------------|---------|-------------------|------------||---|---|---|---||

E:------------|---------|-------------------|------------||---|---|---|---||

||Let ring ||

e:------------|---------|-------------------|------------||---|---|---|---||

H:------------|---------|-------------------|------------||---|---|---|---||

G:--------5-5-|5--------|-5-----------------|-----------*||---|---|---|---||

D:-5-5-5--5-5-|5--3-3-3-|-5--------3--------|-5---------*||-5-|---|---|---||

A:-5-5-5--3-3-|3--3-3-3-|-3--------3--------|-5----------||-5-|---|---|---||

E:-3-3-3------|---1-1-1-|----------1--------|-3----------||-3-|---|---|---||

Let ring

Gm Gm Bb Dm/A

e:(3)----3---------|-----------------|(1)---1----------|--------------1--|

H:(3)---3----------|-----------------|(1)--3-----------|-------------3---|

G:(3)--3-----------|-----------------|(1)-3------------|------------2----|

D:(3)-5------------|-----------------|(1)3-------------|-----------3-----|

A:(3)5-------------|-----------------|-1---------------|----------0------|

E:-3---------------|-----------------|-----------------|-----------------|

Gm Gm Dm Bb

e:(3)----3---------|-----------------|(5)----5---------|-----------------||

H:(3)---3----------|-----------------|(5)---6----------|-----------------||

G:(3)--3-----------|-----------------|(5)--7-----------|-----------------||

D:(3)-5------------|-----------------|(5)-7------------|-----------------||

A:(3)5-------------|-----------------|(5)7-------------|-----------------||

E:-3---------------|-----------------|-5---------------|-----------------||

||

e:-----------------|-----------------|-----------------|-----------------||

H:-----------------|-----------------|-----------------|-----------------||

G:-----------------|-----------------|-----------------|---------3-3-3-3-||

D:-----------------|-----------------|-----------------|---------3-3-3-3-||

A:-----------------|-----------------|-----------------|---------1-1-1-1-||

E:-----------------|-----------------|-----------------|-----------------||

Gm Gm Bb Bb Dm/A

e:(3)----3---------|-----------------|(1)---1----------|-------------1---|

H:(3)---3----------|-----------------|(1)--3-----------|------------3----|

G:(3)--3-----------|-----------------|(1)-3------------|-----------2-----|

D:(3)-5------------|-----------------|(1)3-------------|----------3------|

A:(3)5-------------|-----------------|-1---------------|---------0-------|

E:-3---------------|-----------------|-----------------|-----------------|

|

e:-----------------|-----------------|-----------------|-----------------|

H:-----------------|-----------------|-----------------|-----------------|

G:-----------------|-----------------|-----------------|-----------------|

D:-5-5-5-5-5-5-5-5-|-5-5-5-5-5-5-5-5-|-8-8-8-8-8-8-8-8-|-8-8-8-8-7-7-7-7-|

A:-5-5-5-5-5-5-5-5-|-5-5-5-5-5-5-5-5-|-8-8-8-8-8-8-8-8-|-8-8-8-8-8-8-8-8-|

E:-3-3-3-3-3-3-3-3-|-3-3-3-3-3-3-3-3-|-6-6-6-6-6-6-6-6-|-6-6-6-6-5-5-5-5-|

Gm Gm Eb F

e:(3)----3---------|-----------------|-----------------|-----------------||

H:(3)---3----------|-----------------|-----------------|-----------------||

G:(3)--3-----------|-----------------|-----------------|-----------------||

D:(3)-5------------|-----------------|-----------------|-----------------||

A:(3)5-------------|-----------------|-----------------|-----------------||

E:-3---------------|-----------------|-----------------|-----------------||

e:-----------------|-----------------|-----------------|-----------------||

H:-----------------|-----------------|-----------------|-----------------||

G:-----------------|-----------------|-8-8-8-8--8------|-----------------||

D:-5-5-5-5-5-5-5-5-|-5-5-5-5-5-5-5-5-|-8-8-8-8--8------|-3---------------||

A:-5-5-5-5-5-5-5-5-|-5-5-5-5-5-5-5-5-|-6-6-6-6--6------|-3---------------||

E:-3-3-3-3-3-3-3-3-|-3-3-3-3-3-3-3-3-|-----------------|-1---------------||

Gm Eb/G Gm F

e:-----------------|-----------------|-----------------|-----------------|

H:-----------------|-----------------|-----------------|-----------------|

G:-----------------|-----------------|-----------------|-----------------|

D:-5-----5-----5---|-5-----5---5---5-|-5-----5-----5---|-3---------------|

A:-5-----5-----5---|-6-----6---6---6-|-5-----5-----5---|-3---------------|

E:-3-3-3-3-3-3-3-3-|-3-3-3-3-3-3-3-3-|-3-3-3-3-3-3-3-3-|-1---------------|

|

e:-10--------------|-11--------------|-10--------------|-----------------|

H:-----------------|-----------------|-----------------|-13--------------|

G:-----------------|-----------------|-----------------|-----------------|

D:-----------------|-----------------|-----------------|-----------------|

A:-----------------|-----------------|-----------------|-----------------|

E:-----------------|-----------------|-----------------|-----------------|

Gm Eb/G Cm F

e:-----------------|-----------------|-----------------|-----------------|

H:-----------------|-----------------|-----------------|-----------------|

G:-----------------|-----------------|-5---------------|-----------------|

D:-5-----5-----5---|-5-----5---5---5-|-5---------------|-3---------------|

A:-5-----5-----5---|-6-----6---6---6-|-3---------------|-3---------------|

E:-3-3-3-3-3-3-3-3-|-3-3-3-3-3-3-3-3-|-----------------|-1---------------|

|

e:-10--------------|-11--------------|-----------------|-----------------|

H:-----------------|-----------------|-13------11------|-10--------------|

G:-----------------|-----------------|-----------------|--------12-10-12-|

D:-----------------|-----------------|-----------------|-----------------|

A:-----------------|-----------------|-----------------|-----------------|

E:-----------------|-----------------|-----------------|-----------------|

Gm Eb/G Bb F

e:-----------------|-----------------|-----------------|-----------------|

H:-----------------|-----------------|-----------------|-----------------|

G:-----------------|-----------------|-3---------------|-----------------|

D:-5-----5-----5---|-5-----5---5---5-|-3---------------|-3---------------|

A:-5-----5-----5---|-6-----6---6---6-|-1---------------|-3---------------|

E:-3-3-3-3-3-3-3-3-|-3-3-3-3-3-3-3-3-|-----------------|-1---------------|

|

e:-----------------|-----------------|-10------13------|-13------11------|

H:-----------------|-----------------|-----------------|-----------------|

G:-12--------------|-12--------------|-----------------|-----------------|

D:-----------------|-----------------|-----------------|-----------------|

A:-----------------|-----------------|-----------------|-----------------|

E:-----------------|-----------------|-----------------|-----------------|

Gm Eb/G F F

e:-----------------|-----------------|-----------------|-----------------||

H:-----------------|-----------------|-----------------|-----------------||

G:-----------------|-----------------|-----------------|-----------------||

D:-5-----5-----5---|-5-----5-----5---|-3---------------|-3---------------||

A:-5-----5-----5---|-6-----6-----6---|-3---------------|-3---------------||

E:-3-3-3-3-3-3-3-3-|-3-3-3-3-3-3-3-3-|-1---------------|-1---------------||

||

e:-10--------------|-10-------8------|-8---------------|-8---------------||

H:-----------------|-----------------|-----------------|-----------------||

G:-----------------|-----------------|-----------------|-----------------||

D:-----------------|-----------------|-----------------|-----------------||

A:-----------------|-----------------|-----------------|-----------------||

E:-----------------|-----------------|-----------------|-----------------||

Eb Gm Eb F

e:---|---|---|---|---|---|---|

H:---|---|---|---|---|---|---|

G:-8-|---|---|---|-8-|---|---|

D:-8-|---|-5-|---|-8-|---|-3-|

A:-6-|---|-5-|---|-6-|---|-3-|

E:---|---|-3-|---|---|---|-1-|

e:-------10--------------------------------------------------------------|

H:-13-13----13--11-10-11-13-11-10----------------------------------------|

G:--------------------------------10-------------------------------------|

D:---------------------------------------8--10-8--7-8-7-----8-7----------|

A:-------------------------------------------------------8-------8-10----|

E:-----------------------------------------------------------------------|

e:-----------------------------------------------------------------------|

H:-----------------------------------------------------------------------|

G:-----------------------------------------------------------------------|

D:-----------------------------8-10-12--8-10--7--8-7h8p7-----------------|

A:---------------8---------------------------------------10-8------------|

E:-8/10/11-10-11---11-10-11--8-------------------------------------------|

e:-------------------------------------------------------(11)r10---------|

H:------------------------------------10-11--(11)r10-------------11------|

G:--------------------8-10---8-----12-----------------10-----------------|

D:------------8-10-11----------10----------------------------------------|

A:----8-10-11------------------------------------------------------------|

E:-11--------------------------------------------------------------------|

e:------------------------------------|

H:-10-11-11-10-10---------------------|

G:----------------10-10-------12-12--|

D:----------------------12-12---------|

A:------------------------------------|

E:------------------------------------|

Gm Eb/G Gm F

e:-3---3-5-6---3---|-3---------1-3---|-3---3-5-6---5-6-|-8---8-6-5-----5-|

B:---3-------3---3-|-----4---4-------|---3-------3-----|---6-------6-8---|

G:-----------------|---3---3-------3-|-----------------|-----------------|

D:-----------------|-----------------|-----------------|-----------------|

A:-----------------|-----------------|-----------------|-----------------|

E:-----------------|-----------------|-----------------|-----------------|

|

e:-----------------|-----------------|-----------------|-----------------|

H:-----------------|-----------------|-----------------|-----------------|

G:-----------------|-----------------|-----------------|-----------------|

D:-5---------------|-5---------------|-5---------------|-5---------------|

A:-----------------|-----------------|-----------------|-----------------|

E:-3---------------|-3---------------|-3---------------|-3---------------|

Gm Eb/G Cm F

e:-3---3-5-6---3---|-3---------1-3---|-----------------|-6---5---3-------|

B:---3-------3---3-|-----4---4-------|-4---4-6-8-4-6-8-|-------------6---|

G:-----------------|---3---3-------3-|---5-------------|---5---5---5---5-|

D:-----------------|-----------------|-----------------|-----------------|

A:-----------------|-----------------|-----------------|-----------------|

E:-----------------|-----------------|-----------------|-----------------|

|

e:-----------------|-----------------|-----------------|-----------------|

H:-----------------|-----------------|-----------------|-----------------|

G:-----------------|-----------------|-----------------|-----------------|

D:-5---------------|-5---------------|-5---------------|-5---------------|

A:-----------------|-----------------|-----------------|-----------------|

E:-3---------------|-3---------------|-3---------------|-3---------------|

Gm Eb/G Bb F

e:-3---3-5-6---3---|-3---------1-3---|-6---6-8-10---6--|-8---8-6-5-1-3-5-|

B:---3-------3---3-|-----4---4-------|---6--------6---6|---6-------------|

G:-----------------|---3---3-------3-|-----------------|-----------------|

D:-----------------|-----------------|-----------------|-----------------|

A:-----------------|-----------------|-----------------|-----------------|

E:-----------------|-----------------|-----------------|-----------------|

|

e:-----------------|-----------------|-----------------|-----------------|

H:-----------------|-----------------|-----------------|-----------------|

G:-----------------|-----------------|-3---------------|-----------------|

D:-5---------------|-5---------------|-----------------|-3---------------|

A:-----------------|-----------------|-1---------------|-----------------|

E:-3---------------|-3---------------|-----------------|-1---------------|

|

e:-----------------|-----------------|-----------------|-----------------|

H:-----------------|-----------------|-----------------|-----------------|

G:-----------------|-----------------|-3---------------|-----------------|

D:-----------------|-----------------|-3---------------|-3---------------|

A:-----------------|-----------------|-1---------------|-3---------------|

E:-----------------|-----------------|-----------------|-1---------------|

Gm Eb/G F F

e:-3---3-5-6---3---|-3---------1-3---|-----6---5-------|-----6---5-------||

H:---3-------3---3-|-----4---4-------|-6-----------8-6-|---6---------8---||

G:-----------------|---3---3-------3-|---5---5---5-----|-5-----5---5---5-||

D:-----------------|-----------------|-----------------|-----------------||

A:-----------------|-----------------|-----------------|-----------------||

E:-----------------|-----------------|-----------------|-----------------||

||

e:-----------------|-----------------|-----------------|-----------------||

H:-----------------|-----------------|-----------------|-----------------||

G:-----------------|-----------------|-----------------|-----------------||

D:-5---------------|-5---------------|-3---------------|-3---------------||

A:-----------------|-----------------|-----------------|-----------------||

E:-3---------------|-3---------------|-1---------------|-1---------------||

e:-----------------|-----------------|-----------------|-----------------||

H:-----------------|-----------------|-----------------|-----------------||

G:-----------------|-----------------|-----------------|-----------------||

D:-5---------------|-5---------------|-3---------------|-3---------------||

A:-5---------------|-6---------------|-3---------------|-3---------------||

E:-3---------------|-3---------------|-1---------------|-1---------------||

Get this song at:  amazon.com sheetmusicplus.com

Share your thoughts

0 Comments found