Nightwish

Nightwish - Ever Dream bass tab

G||------|------|------|------|------|------|-------------------|

D||------|------|------|------|------|------|-------------------|

A||------|------|------|------|------|------|--3----------------|

E||------|------|------|------|------|------|-------------------|

-------------------|-------------------|------------------|-------------------|

--3----------------|--5----------------|------------------|--8----------------|

-------------------|-------------------|------------------|-------------------|

-------------------|-------------------|------------------|-------------------|

------------------|-------------------|-------------------|-------------------|

------------------|--5----------------|-------------------|--3----------------|

------------------|-------------------|--6----------------|-------------------|

------------------|-------------------|-------------------|-------------------|

------------------|------------------|------------------||--------------------|

------------------|------------------|------------------||*-------------------|

------------------|------------------|------------------||*-------------------|

------------------|------------------|------------------||---3----------------|

-------------------|-------------------|-------------------|-------------------|

-------------------|-------------------|-------------------|-------------------|

-------------------|-------------------|-------------------|-------------------|

----------1--------|--3----------------|----------1--------|--3----------------|

-------------------|--------------------|--------------------||

-------------------|--------------------|-------------------*||

-------------------|--3-----------------|-------------------*||

----------1--------|-----------1--------|--3-----------------||

----------------------|-----------------------|--0------0----------0--|

----------------------|-----------------0--3--|--------------0--3-----|

----------------------|-----------------------|-----------------------|

--3----3----3----3----|--3----3----3----------|-----------------------|

-----0--------------------|--------------------------|

--3-----3--0--------------|--------------------------|

--------------3--1--0-----|--------------------------|

-----------------------1--|--3--3--3--3--3--3--3--3--|

--------------------------|--------------------------|

--------------------------|--------------------------|

--------------------------|--1--1--1--1--1--1--1--1--|

--3--3--3--3--3--3--3--3--|--------------------------|

--------------------------|--------------------------|

--------------------------|--------------------------|

--1--1--1--1--0--0--0--0--|--------------------------|

--------------------------|--3--3--3--3--3--3--3--3--|

--------------------------|--------------------------|

--------------------------|--------------------------|

--------------------------|--------------------------|

--3--3--3--3--3--3--3--3--|--5--5--5--5--5--5--5--5--|

--------------------------|--------------------------|

--------------------------|--------------------------|

--------------------------|--------------------------|

--5--5--5--5--6--6--6--6--|--3--3--3--3--3--3--3--3--|

--------------------------|--------------------------|

--------------------------|--------------------------|

--------------------------|--1--1--1--1--1--1--1--1--|

--3--3--3--3--3--3--3--3--|--------------------------|

--------------------------|--------------------------|

--------------------------|--------------------------|

--1--1--1--1--0--0--0--0--|--------------------------|

--------------------------|--3--3--3--3--3--3--3--3--|

--------------------------|-----------------------|-------------------|

--------------------------|-----------------------|-------------------|

--------------------------|--6--6--6--6--6--------|-------------------|

--3--3--3--3--3--3--3--3--|-----------------------|--1----------------|

--------------------------|--------------------------|

--------------------------|--------------------------|

--------------------------|--------------------------|

--3--3--3--3--3--3--3--3--|--3--3--3--3--3--3--3--3--|

--------------------------|-------------------|--------------------------|

--------------------------|-------------------|--------------------------|

--------------------------|-------------------|--------------------------|

--3--3--3--3--3--3--3--3--|--1----------------|--3--3--3--3--3--3--3--3--|

--------------------------|-------------------|--------------------------|

--------------------------|-------------------|--------------------------|

--------------------------|--3----------------|-----------0--1--0--------|

--3--3--3--3--3--3--3--3--|-------------------|--1--1--3-----------3--1--|

--------------------------|--------------------------|-------------------|

--------------------------|--------------------------|-------------------|

--------------------------|--------------------------|--1----------------|

--3--3--3--3--3--3--3--3--|--3--3--3--3--3--3--3--3--|-------------------|

-------------------|--------------------------|--------------------------|

-------------------|--------------------------|--------------------------|

-------------------|--------------------------|--------------------------|

--1----------------|--3--3--3--3--3--3--3--3--|--3--3--3--3--3--3--3--3--|

-------------------|-------------------|-------------------|-------------------|

-------------------|-------------------|-------------------|-------------------|

-------------------|-------------------|-------------------|-------------------|

--1----------------|--1----------------|--3----------------|----------1--------|

-------------------|-------------------|-------------------|-------------------|

-------------------|-------------------|-------------------|-------------------|

-------------------|-------------------|-------------------|-------------------|

--3----------------|----------1--------|--3----------------|----------1--------|

--------------------|--------------------------|--------------------------|

--------------------|--------------------------|--------------------------|

--3-----------------|--------------------------|--------------------------|

-----------1--------|--3--3--3--3--3--3--3--3--|--3--3--3--3--3--3--3--3--|

--------------------------|--------------------------|

--------------------------|--------------------------|

--1--1--1--1--1--1--1--1--|--1--1--1--1--0--0--0--0--|

--------------------------|--------------------------|

--------------------------|--------------------------|-----------------------|

--------------------------|--------------------------|-----------------------|

--------------------------|--------------------------|--6--6--6--6--6--------|

--3--3--3--3--3--3--3--3--|--3--3--3--3--3--3--3--3--|-----------------------|

-------------------|--------------------------|--------------------------|

-------------------|--------------------------|--------------------------|

-------------------|--------------------------|--------------------------|

--1----------------|--3--3--3--3--3--3--3--3--|--3--3--3--3--3--3--3--3--|

--------------------------|-------------------|--------------------------|

--------------------------|-------------------|--------------------------|

--------------------------|-------------------|--------------------------|

--3--3--3--3--3--3--3--3--|--1----------------|--3--3--3--3--3--3--3--3--|

--------------------------|-------------------|--------------------------|

--------------------------|-------------------|--------------------------|

--------------------------|--3----------------|-----------0--1--0--------|

--3--3--3--3--3--3--3--3--|-------------------|--1--1--3-----------3--1--|

--------------------------|--------------------------|-------------------|

--------------------------|--------------------------|-------------------|

--------------------------|--------------------------|--1----------------|

--3--3--3--3--3--3--3--3--|--3--3--3--3--3--3--3--3--|-------------------|

-------------------|--------------------------|--------------------------|

-------------------|--------------------------|--------------------------|

-------------------|--------------------------|--------------------------|

--1----------------|--3--3--3--3--3--3--3--3--|--3--3--3--3--3--3--3--3--|

-------------------|-------------------|--------------------------|

-------------------|-------------------|--------------------------|

-------------------|-------------------|--6--6--6--6--6--6--6--6--|

--1----------------|--1----------------|--------------------------|

--------------------------|--------------------------|

--------------------------|--------------------------|

--6--6--6--6--6--6--6--6--|--------------------------|

--------------------------|--3--3--3--3--3--3--3--3--|

--------------------------|--------------------------|

--------------------------|--------------------------|

--------------------------|--6--6--6--6--6--6--6--6--|

--3--3--3--3--3--3--3--3--|--------------------------|

--------------------------|--------------------------|

--------------------------|--------------------------|

--6--6--6--6--6--6--6--6--|--------------------------|

--------------------------|--1--1--1--1--1--1--1--1--|

--------------------------|--------------------------|

--------------------------|--------------------------|

--------0--1--3--3--1--0--|--------------------------|

--1--3--------------------|--3--3--3--3--3--3--3--3--|

--------------------------|--------------------------|

--------------------------|--------------------------|

--------------------------|--------------------------|

--3--3--3--3--3--3--3--3--|--3--3--3--3--3--3--3--3--|

--------------------------|--------------------------|

--------------------------|--------------------------|

--------------------------|--------------------------|

--1--1--1--1--1--1--1--1--|--3--3--3--3--3--3--3--3--|

--------------------------|--------------------------|

--------------------------|--------------------------|

--------------------------|--3--3--3--3--3--3--3--3--|

--3--3--3--3--3--3--3--3--|--------------------------|

--------------------------|--------------------------|

--------------------------|--------------------------|

--------------------------|--------------------------|

--1--1--1--1--1--1--1--1--|--3--3--3--3--3--3--3--3--|

--------------------------|-------------------------|--------------------------|

--------------------------|-------------------------|--------------------------|

-----------------------0--|--1--1--1--1--1--1--1----|-----------------1--1--0--|

--3--3--3--3--3--3--3-----|-------------------------|--1--1--1--1--1-----------|

--------------------------|--------------------------|

--------------------------|--------------------------|

--------------------------|--------------------------|

--3--3--3--3--3--3--3--3--|--3--3--3--3--3--3--3--3--|

--------------------------|--------------------------|--0----------------|----|

--------------------------|-----0--3--0-----3--3--0--|-------------------|----|

-----------------------0--|--1-----------1-----------|-------------------|----|

--1--1--1--1--1--1--3-----|--------------------------|-------------------|----|

----|----|----|----|----|----|----|----|----------------------|

----|----|----|----|----|----|----|----|----------------------|

----|----|----|----|----|----|----|----|--1----1----1----1----|

----|----|----|----|----|----|----|----|----------------------|

----------------------|----------------------|----------------------|

----------------------|----------------------|----------------------|

----------------------|----------------------|----------------------|

--1----1----1----1----|--3----3----3----3----|--3----3----3----3----|

----------------------|----------------------|

----------------------|----------------------|

----------------------|----------------------|

--1----1----1----1----|--1----1----1----1----|

----------------------------------|----------------------------------|

----------------------------------|----------------------------------|

--1-1-1-1-1-1-1-1-1-1-1-1-1-1-1-1-|--1-1-1-1-1-1-1-1-1-1-1-1-1-1-1-1-|

----------------------------------|----------------------------------|

----------------------------------|----------------------------------|

----------------------------------|----------------------------------|

--1-1-1-1-1-1-1-1-1-1-1-1-1-1-1-1-|----------------------------------|

----------------------------------|--4-4-4-4-4-4-4-4-4-4-4-4-4-4-4-4-|

----------------------------------|----------------------------------|

----------------------------------|----------------------------------|

--1-1-1-1-1-1-1-1-1-1-1-1-1-1-1-1-|--1-1-1-1-1-1-1-1-1-1-1-1-1-1-1-1-|

----------------------------------|----------------------------------|

----------------------------------|----------------------------------|

----------------------------------|----------------------------------|

----------------------------------|----------------------------------|

--1-1-1-1-1-1-1-1-1-1-1-1-1-1-1-1-|--4-4-4-4-4-4-4-4-4-4-4-4-4-4-4-4-|

----------------------------------|----------------------------------|

----------------------------------|----------------------------------|

--1-1-1-1-1-1-1-1-1-1-1-1-1-1-1-1-|--1-1-1-1-1-1-1-1-1-1-1-1-1-1-1-1-|

----------------------------------|----------------------------------|

----------------------------------|----------------------------------|

----------------------------------|----------------------------------|

--4-4-4-4-4-4-4-4-4-4-4-4-4-4-4-4-|----------------------------------|

----------------------------------|--4-4-4-4-4-4-4-4-4-4-4-4-4-4-4-4-|

----------------------------------|----------------------------------|

----------------------------------|----------------------------------|

--1-1-1-1-1-1-1-1-1-1-1-1-1-1-1-1-|----------------------------------|

----------------------------------|--2-2-2-2-2-2-2-2-2-2-2-2-2-2-2-2-|

----------------------------------|----------------------------------|

----------------------------------|----------------------------------|

----------------------------------|----------------------------------|

--4-4-4-4-4-4-4-4-4-4-4-4-4-4-4-4-|--4-4-4-4-4-4-4-4-4-4-4-4-4-4-4-4-|

----------------------------------|----------------------------------|

----------------------------------|----------------------------------|

--1-1-1-1-1-1-1-1-1-1-1-1-1-1-1-1-|--1-1-1-1-1-1-1-1-1-1-1-1-1-1-1-1-|

----------------------------------|----------------------------------|

----------------------------------|----------------------------------|

----------------------------------|----------------------------------|

--1-1-1-1-1-1-1-1-1-1-1-1-1-1-1-1-|----------------------------------|

----------------------------------|--4-4-4-4-4-4-4-4-4-4-4-4-4-4-4-4-|

----------------------------------|----------------------------------|

----------------------------------|----------------------------------|

--1-1-1-1-1-1-1-1-1-1-1-1-1-1-1-1-|--1-1-1-1-1-1-1-1-1-1-1-1-1-1-1-1-|

----------------------------------|----------------------------------|

----------------------------------|----------------------------------|

----------------------------------|----------------------------------|

----------------------------------|----------------------------------|

--1-1-1-1-1-1-1-1-1-1-1-1-1-1-1-1-|--4-4-4-4-4-4-4-4-4-4-4-4-4-4-4-4-|

----------------------------------|----------------------------------|

----------------------------------|----------------------------------|

--1-1-1-1-1-1-1-1-1-1-1-1-1-1-1-1-|--1-1-1-1-1-1-1-1-1-1-1-1-1-1-1-1-|

----------------------------------|----------------------------------|

----------------------------------|----------------------------------|

----------------------------------|----------------------------------|

--4-4-4-4-4-4-4-4-4-4-4-4-4-4-4-4-|----------------------------------|

----------------------------------|--4-4-4-4-4-4-4-4-4-4-4-4-4-4-4-4-|

----------------------------------|----------------------------------|

----------------------------------|----------------------------------|

--1-1-1-1-1-1-1-1-1-1-1-1-1-1-1-1-|----------------------------------|

----------------------------------|--2-2-2-2-2-2-2-2-2-2-2-2-2-2-2-2-|

----------------------------------|----------------------------------|

----------------------------------|----------------------------------|

----------------------------------|----------------------------------|

--4-4-4-4-4-4-4-4-4-4-4-4-4-4-4-4-|--4-4-4-4-4-4-4-4-4-4-4-4-4-4-4-4-|

-------------------|------||

-------------------|------||

--1----------------|------||

-------------------|------||

Taken from The BassMasta -- http://www.tabs-database.com

Get this song at:  amazon.com sheetmusicplus.com

Share your thoughts

0 Comments found