Nightwish

Nightwish - Eva Solo guitar tab

voilas j'ai reussi à trouver a l'oreille le solo du nouveau single de nighwish qui est

le 24 mai qui se prénome EVA !!!

il y a surement des erreurs corriger les et faites les moi parvenir !! ;-)

c'est ma 1ere tabs donc les espace entre les notes ne correspondent pas forcement au temps !!!

voilas bonne gratte !! :-))))

e|-------------------------------------------------------------------------|

b|-14(15)--14(15)-14--12--10--12-------------------------------------------|

g|--------------------------------11---11--11--12--12--14--11--------------|

d|-------------------------------------------------------------14-12-12-14-|

a|-------------------------------------------------------------------------|

E|-------------------------------------------------------------------------|

e|-------------------------------------------------------------------------|

b|-------------------------------------------------------10--12------------|

g|--11—12-----12--11--9--9--11------------11----16-14-9-----------x-x--11--|

d|-----------------------------9~~~~------------------------------x-x------|

a--------------------------------------------------------------------------|

E|-------------------------------------------------------------------------|

e|--15--13-------------------------------------------------------------------|

b|----------10---------------------------------------------------------------|

g|---------------~~~-------------------11-14-17----15---12--~~~------|

d|-------------------------14--12---- 12-14----------------------------------|

a|---------------------------------------------------------------------------|

E|---------------------------------------------------------------------------|

Get this song at:  amazon.com sheetmusicplus.com

Share your thoughts

0 Comments found