Nightwish

Nightwish - End Of All Hope guitar tab

Band – Nightwish

Album – Centuary Child

Song – End Of All Hope

I cant seem to get any tabs for this, so I decided to make my attempt! It sounds good!

Standard Tuning

Intro 0.00

Riff 1

e|-------------------------------|

B|-------------------------------|

G|-------------------------------|

D|-------------------------------|

A|--5-----5---5-----5-----3-3----|

E|--3-3-3-3---3-3-3-3-----1-1----|

0.03

e|-------------------------------|

B|-------------------------------|

G|-------------------------------|

D|------------------------7-7----|

A|--5-----5---5-----5-----5-5----|

E|--3-3-3-3---3-3-3-3------------|

e|-------------------------------|

B|-------------------------------|

G|-------------------------------|

D|-------------------------------|

A|--3-----3---3-----3-----3-3----|

E|--1-1-1-1---1-1-1-1-----1-1----|

e|-------------------------------|

B|-------------------------------|

G|------------------------3------|

D|--5-5-5-5---5-5-5-5-----1-3----|

A|--3-3-3-3---3-3-3-3-------1----|

E|-------------------------------|

Riff 1 ("This is the birth of all hope...")

e|-------------------------------------------------|

B|-------------------------------------------------|

G|-------------------------------------------------|

D|---------------------------------------5----5----|

A|--2------------------------------------3----3----|

E|--0-0-0-0-0-0-0-0-0-0-0-0-0-0-0-0-0-0------------|

e|-------------------------------------------------|

B|-------------------------------------------------|

G|---------------------------------------2----2----|

D|--7------------------------------------2----2----|

A|--5-5-5-5-5-5-5-5-5-5-5-5-5-5-5-5-5-5--0----0----|

E|-------------------------------------------------|

e|-------------------------------------------------|

B|-------------------------------------------------|

G|-------------------------------------------------|

D|---------------------------------------5----5----|

A|--2------------------------------------3----3----|

E|--0-0-0-0-0-0-0-0-0-0-0-0-0-0-0-0-0-0------------|

e|-------------------------------------------------|

B|-------------------------------------------------|

G|-------------------------------------------------|

D|--7------------------------------------2----2----|

A|--5-5-5-5-5-5-5-5-5-5-5-5-5-5-5-5-5-5--2----2----|

E|---------------------------------------0----0----|

Riff 3

This is the hard part!

e|----------------------------------------------------|

B|----------------------------------------------------|

G|----------------------------------------------------|

D|---------------------------------------------3------|

A|--5-----5---------0-1-0----5-----5-----1-0-1---1-0--|

E|--3-3-3-3-3-3-1-3-------1--3-3-3-3-3-3--------------|

e|------------------------------------------------|

B|------------------------------------------------|

G|------------------------------------------------|

D|------------------------------------------------|

A|--5---5-----------0-1-0---3--3-3-1-0-0--0---0---|

E|--3-3-3-3-3-3-1-3-------1-----------------3-----|

e|--------------------------|

B|--------------------------|

G|--------------------------|

D|-----------------------5--|

A|--1-0---0--------------5--|

E|------3---3-1-3-3-3-3--3--|

e|------------------------------|

B|------------------------------|

G|------------------------7-----|

D|----------777----333----7-----|

A|---555----555----111----5-----|

E|---333------------------------|

Verse 2

e|----------------------------------|

B|----------------------------------|

G|----------------------------------|

D|----------------------------------|

A|--5555--5555--5555--3-3-----------|

E|--3333--3333--3333--1-1-----------|

e|----------------------------------|

B|----------------------------------|

G|----------------------------------|

D|--------------------7-------------|

A|--5555--5555--5555--5-7-----------|

E|--3333--3333--3333----5-----------|

e|----------------------------------|

B|----------------------------------|

G|--------------------------3---2---|

D|--------------------------3---2---|

A|--5555--5555--5555--3-3---1---0---|

E|--3333--3333--3333--1-1-----------|

Chorus

bridge

e|----------------------------------------|

B|----------------------------------------|

G|----------------------------------------|

D|----------------------------------------|

A|--5---------5---------5---------3--3----|

E|--3-3-3-3-3-3-3-3-3-3-3-3-3-3-3-1--1----|

e|----------------------------------------|

B|----------------------------------------|

G|----------------------------------------|

D|--------------------------------7--7----|

A|--5---------5---------5---------5--5----|

E|--3-3-3-3-3-3-3-3-3-3-3-3-3-3-3---------|

e|----------------------------------------|

B|----------------------------------------|

G|----------------------------------------|

D|----------------------------------------|

A|--3---------3---------3---------3--3----|

E|--1-1-1-1-1-1-1-1-1-1-1-1-1-1-1-1--1----|

e|----------------------------------------|

B|----------------------------------------|

G|---------------------------------3------|

D|--5---------5---------5----------1--3---|

A|--3-3-3-3-3-3-3-3-3-3-3-3-3-3-3-----1---|

E|----------------------------------------|

Chorus

Riff 4

1.56

e|---------------------------------------------------------------------------|

B|---------------------------------------------------------------------------|

G|---------------------------------------------------------------------------|

D|---------------------------------------------------------------------------|

A|-2--2-2-2-2--2-2-2-2--2-2-2-2--2-2-2-2--2-2-2-2--2-2-2-2--2-2-2-2--4--5----|

E|-0--0-0-0-0--0-0-0-0--0-0-0-0--0-0-0-0--0-0-0-0--0-0-0-0--0-0-0-0--2--3----|

Riff 5

2.14

e|------------------------------------------------------------|

B|------------------------------------------------------------|

G|------------------------------------------------------------|

D|--7777--7777--7777--7777--7777--7777--7777--7--------5------|

A|--5555--5555--5555--5555--5555--5555--5555--5--7--3--3------|

E|-----------------------------------------------5--1---------|

Solo 2.50

e|-----------------------------------------------------------|

B|-----12h15p13—12h16p13-----12h15p13—12h16p13----15/19^b----|

G|-----------------------------------------------------------|

D|-----------------------------------------------------------|

A|-----------------------------------------------------------|

E|-----------------------------------------------------------|

e|--------------------------------------------------------|

B|-----10-13-12h14p11--10-13-12h14-----15~~16b------------|

G|--------------------------------------------------------|

D|--------------------------------------------------------|

A|--------------------------------------------------------|

E|--------------------------------------------------------|

Solo Rythym

e|---------------------|

B|---------------------|

G|---------------------|

D|-7-----5---2---3---5-|

A|-5--5--3---0---1---3-|

E|----3----------------|

e|------------------------|

B|------------------------|

G|------------------------|

D|----5-7---2-----5-7--9--|

A|-2--3-5---0-2---3-5--7--|

E|-0----------0-----------|

Repeat Chorus

Outro

e|---------------------------------|

B|---------------------------------|

G|---------------------------------|

D|--7------------------------------|

A|--5---3---5----5---5---5---5-----|

E|------1---3----3-3-3-3-3-3-3-----|

Get this song at:  amazon.com sheetmusicplus.com

Share your thoughts

0 Comments found