Nightwish

Nightwish - Elvenpath guitar tab

Visit MetalTabs.com for more metal tablature

NIGHTWISH - "Elvenpath"

From the album "Angels Fall First"

Written by Tuomas Holopainen

This is my first tab !

If you have corrections, e-mail me at rx650@free.fr or rx650@aol.com

INTRO (0:00)

RIFF (0:25)

e:-----------------------------------------------------------------------------|

B:-----------------------------------------------------------------------------|

G:-----------------------------------------------------------------------------|

D:-----------0-----------------------------------------------------------------|

A:---3-2-0-----3---------------------------------------------------------------|

E:-1-------3-----3-------------------------------------------------------------|

e:-----------------------------------------------------------------------------|

B:-----------------------------------------------------------------------------|

G:--------5-----------------------------------------2-0------------------------|

D:-7-7-5--5-----7-7-5--7-----7-7-5--3-------------------0----------------------|

A:-7-7-5--3-----7-7-5--7-----7-7-5--3-------3-2-0------------------------------|

E:-5-5-3--------5-5-3--5-----5-5-3--1-----1-------3----------------------------|

e:-----------------------------------------------------------------------------|

B:-----------------------------------------------------------------------------|

G:--------5--------------------------------------------------------------------|

D:-7-7-5--5-----7-7-5--7-----7-7-5--3---------------0--------------------------|

A:-7-7-5--3-----7-7-5--7-----7-7-5--3-------3-2-0-----3------------------------|

E:-5-5-3--------5-5-3--5-----5-5-3--1-----1-------3-----3----------------------|

VERSE (0:53)

e:-----------------------------------------------------------------------------|

B:-----------------------------------------------------------------------------|

G:-------------7-10------------------------------------------------------------|

D:-7-7--8-5-7--7-10--7---7-7--8-5-7-7-----------------2------------------------|

A:-7-7--8-5-7--5-8---7---7-7--8-5-7-7---8-7-5-3------2------------------------|

E:-5-5--6-3-5--------5---5-5--6-3-5X5-------------1-3-0------------------------|

(1:07)

Every chords are played several times

e:-----------------------------------------------------------------------------|

B:-----------------------------------------------------------------------------|

G:-----------------------------------------------------------------------------|

D:-------------7-10------------------------------------------------------------|

A:-7-7--8-5-7--5-8---7---7-7--8-5-7--7---7--7---7------------------------------|

E:-5-5--6-3-5--------5---5-5--6-3-5--5-X-5--5-X-5------------------------------|

p.m. . . . . . . . . . . . . . . .

CHORUS (1:19)

e:-----------------------------------------------------------------------------|

B:-----------------------------------------------------------------------------|

G:-----------------------------------------------------------------------------|

D:-5----------------------------------7-------7-7------------------------------|

A:-3-3-..-5------8------7------3------5-5-..--5-5--5--7-7-7-------5--7-7-7...--|

E:--------3-3-..-6-6-..-5-5-..-1-1-..------------------------------------------|

p.m. . . . . . . . . . . . . . . . . .. . . . .. . . . . . . . . . . . . . .

e:-----------------------------------------------------------------------------|

B:-----------------------------------------------------------------------------|

G:-----------------------------------------------------------------------------|

D:-5---------------------------------------------------------------------------|

A:-3-3-..-5------8------7------3------2----------------------------------------|

E:--------3-3-..-6-6-..-5-5-..-1-1-..-0----------------------------------------|

p.m. . . . . . . . . . . . . . .

Back to the INTRO RIFF (1:43)

VERSE (2:09)

CHORUS (2:35)

BREAK (2:59)

Part 1

e:-----------------------------------------------------------------------------|

B:-----------------------------------------------------------------------------|

G:-------------------------2-0-------------------------------------------------|

D:-7-7-5-7-7-------------------0-----7-7-5-7-7---------------0-----------------|

A:-7-7-5-7-7-------3-2-0-------------7-7-5-7-7-------3-2-0-----3---------------|

E:-5-5-3-5-5-----1-------3-----------5-5-3-5-5-----1-------3-----3-------------|

Part 2 (3:12)

e:-----------------------------------------------------------------------------|

B:-----------------------------------------------------------------------------|

G:-----------------------------------------------------------------------------|

D:---------------------------------------------------------2 TIMES-------------|

A:-2-3-2---2-2-3-3---2-3-2-2-3-5-5---------------------------------------------|

E:-0-1-0---0-0-1-1---0-1-0-0-1-3-3---------------------------------------------|

Part 3 (3:25) * = harmonic

e:-----------------------------------------------------------------------------|

B:-----------------------------------------------------------------------------|

G:-----------------------------------------------------------------------------|

D:-7------------------------------------------2--------------------------------|

A:-7---8*-7*----10*-8*---8*-7*--7/6/5/4/3/2/3-0--------------------------------|

E:-5-5--------5--------5-------------------------------------------------------|

p.m. . . . . . .

e:-----------------------------------------------------------------------------|

B:-----------------------------------------------------------------------------|

G:-----------------------------------------------------------------------------|

D:-7--------------------8-8-8--------------------------------------------------|

A:-7---8*-7*----10*-8*--8-8-8--------------------------------------------------|

E:-5-5--------5---------6-6-6--------------------------------------------------|

e:-----------------------------------------------------------------------------|

B:-----------------------------------------------------------------------------|

G:-----------------------------------------------------------------------------|

D:-7------------------------------------------2--------------------------------|

A:-7---8*-7*----10*-8*---8*-7*--7/6/5/4/3/2/3-0--------------------------------|

E:-5-5--------5--------5-------------------------------------------------------

p.m. . . . . . .

e:-----------------------------------------------------------------------------|

B:-----------------------------------------------------------------------------|

G:----------------------7------------------------------------------------------|

D:-7--------------------7------------------------------------------------------|

A:-7---8*-7*----10*-8*--5------------------------------------------------------|

E:-5-5--------5----------------------------------------------------------------|

Play the part 3 two times.

Part 2 (3:53)

e:-----------------------------------------------------------------------------|

B:-----------------------------------------------------------------------------|

G:-----------------------------------------------------------------------------|

D:---------------------------------------------------------2 TIMES-------------|

A:-2-3-2---2-2-3-3---2-3-2-2-3-5-5---------------------------------------------|

E:-0-1-0---0-0-1-1---0-1-0-0-1-3-3---------------------------------------------|

GUITAR SOLO (4:04)

Play the intro riff

Get this song at:  amazon.com sheetmusicplus.com

Share your thoughts

0 Comments found