Nightwish

Nightwish - Elvenpath bass tab

4/4 -- T=150

G||------------------|------------------|------------------|------------------|

D||------------------|------------------|------------------|------------------|

A||------------------|------------------|------------------|------------------|

E||------------------|------------------|------------------|------------------|

------------------|------------------|------------------|------------------|

------------------|------------------|------------------|------------------|

------------------|------------------|------------------|------------------|

------------------|------------------|------------------|------------------|

------------------|------------------|------------------|------------------|

------------------|------------------|------------------|------------------|

------------------|------------------|------------------|------------------|

------------------|------------------|------------------|------------------|

------------------|-------------------|-------------------------|

------------------|-------------------|-------------------------|

------------------|-------------------|----3--2--0-----5--3-----|

------------------|----------------1--|-------------3--------3--|

--------------------------|--------------------------|

--------------------------|--------------------------|

--0--0--0--0--0--------0--|--0--0--0--0--0--------0--|

-----------------3--3-----|-----------------3--3-----|

--------------------------|--------------------------|

--------------------------|--------------0--0--0-----|

--0--0--0--0--0-----------|-----------------------0--|

-----------------3--3--1--|--1--1--1--1--------------|

--------------------------|--------------------------|

--------------------------|--------------------------|

--0--0--0--0--0--------0--|--0--0--0--0--0--------0--|

-----------------3--3-----|-----------------3--3-----|

--------------------------|--------------------------|

--------------------------|--------------------------|

--0--0--0--0--0-----------|--------------------------|

-----------------3--3--1--|--1--1--1--1--3--3--3--3--|

--------------------------|--------------------------|

--------------------------|--------------------------|

--0--0--0--0--0--------0--|--0--0--0--0--0--------0--|

-----------------3--3-----|-----------------3--3-----|

--------------------------|--------------------------|

--------------------------|--------------0--0--0-----|

--0--0--0--0--0-----------|-----------------------0--|

-----------------3--3--1--|--1--1--1--1--------------|

--------------------------|--------------------------|

--------------------------|--------------------------|

--0--0--0--0--0--------0--|--0--0--0--0--0--------0--|

-----------------3--3-----|-----------------3--3-----|

--------------------------|--------------------------|----------------------|

--------------------------|--------------------------|----------------------|

--0--0--0--0--0-----------|--------------------------|--0----0----0----0----|

-----------------3--3--1--|--1--1--1--1--3--3--3--3--|----------------------|

----------------------|----------------------|----------------------|

----------------------|----------------------|--0----0--------------|

--1----1--------------|--0----0----0----0----|----------------------|

------------3----3----|----------------------|------------1----1----|

----------------------|----------------------|----------------------|

----------------------|----------------------|----------------------|

--0----0----0----0----|--1----1--------------|--0----0----0----0----|

----------------------|------------3----3----|----------------------|

-------------------------|----------------------|----------------------|

--3--2--0----------------|----------------------|----------------------|

-------------------0--2--|--0----0----0----0----|--1----1--------------|

-------------1--3--------|----------------------|------------3----3----|

----------------------|----------------------|----------------------|

----------------------|--0----0--------------|----------------------|

--0----0----0----0----|----------------------|--0----0----0----0----|

----------------------|------------1----1----|----------------------|

----------------------|----------------------|----------------------|

----------------------|----------------------|----------------------|

--1----1--------------|--0----0----0----0----|--0----0----0----2----|

------------3----3----|----------------------|----------------------|

----------------------------------|----------------------------------|

----------------------------------|----------------------------------|

--3-3-3-3-3-3-3-3-3-3-3-3-3-3-3-3-|----------------------------------|

----------------------------------|--3-3-3-3-3-3-3-3-3-3-3-3-3-3-3-3-|

----------------------------------|----------------------------------|

----------------------------------|----------------------------------|

--1-1-1-1-1-1-1-1-1-1-1-1-1-1-1-1-|--0-0-0-0-0-0-0-0-0-0-0-0-0-0-0-0-|

----------------------------------|----------------------------------|

----------------------------------|----------------------------------|

----------------------------------|--0-0-0-0-0-0-0-0-0-0-0-0-0-0-0-0-|

----------------------------------|----------------------------------|

--1-1-1-1-1-1-1-1-1-1-1-1-1-1-1-1-|----------------------------------|

----------------------------------|----------------------------------|

--2-2-2-2-2-2-2-2-2-2-2-2-2-2-2-2-|--2-2-2-2-2-2-2-2-2-2-2-2-2-2-2-2-|

----------------------------------|----------------------------------|

----------------------------------|----------------------------------|

----------------------------------|----------------------------------|

----------------------------------|----------------------------------|

--3-3-3-3-3-3-3-3-3-3-3-3-3-3-3-3-|----------------------------------|

----------------------------------|--3-3-3-3-3-3-3-3-3-3-3-3-3-3-3-3-|

----------------------------------|----------------------------------|

----------------------------------|----------------------------------|

--1-1-1-1-1-1-1-1-1-1-1-1-1-1-1-1-|--0-0-0-0-0-0-0-0-0-0-0-0-0-0-0-0-|

----------------------------------|----------------------------------|

----------------------------------|----------------------------------|

----------------------------------|----------------------------------|

----------------------------------|----------------------------------|

--1-1-1-1-1-1-1-1-1-1-1-1-1-1-1-1-|--0-0-0-0-0-0-0-0-0-0-0-0-0-0-0-0-|

--------------------------|--------------------------|

--------------------------|--------------------------|

--0--0--0--0--0--------0--|--0--0--0--0--0--------0--|

-----------------3--3-----|-----------------3--3-----|

--------------------------|--------------------------|

--------------------------|--------------0--0--0-----|

--0--0--0--0--0-----------|-----------------------0--|

-----------------3--3--1--|--1--1--1--1--------------|

--------------------------|--------------------------|

--------------------------|--------------------------|

--0--0--0--0--0--------0--|--0--0--0--0--0--------0--|

-----------------3--3-----|-----------------3--3-----|

--------------------------|--------------------------|

--------------------------|--------------------------|

--0--0--0--0--0-----------|--------------------------|

-----------------3--3--1--|--1--1--1--1--3--3--3--3--|

--------------------------|--------------------------|

--------------------------|--------------------------|

--0--0--0--0--0--------0--|--0--0--0--0--0-----------|

-----------------3--3-----|-----------------3--3--1--|

--------------------------|--------------------------|

--------------0--0--0-----|--------------------------|

-----------------------0--|--0--0--0--0--0--------0--|

--1--1--1--1--------------|-----------------3--3-----|

--------------------------|--------------------------|

--------------------------|--------------------------|

--0--0--0--0--0--------0--|--0--0--0--0--0-----------|

-----------------3--3-----|-----------------3--3--1--|

--------------------------|----------------------|----------------------|

--------------------------|----------------------|----------------------|

--------------------------|--0----0----0----0----|--0----0----0----0----|

--1--1--1--1--3--3--3--3--|----------------------|----------------------|

----------------------|----------------------|----------------------|

----------------------|----------------------|--0----0--------------|

--1----1--------------|--0----0----0----0----|----------------------|

------------3----3----|----------------------|------------1----1----|

----------------------|----------------------|----------------------|

----------------------|----------------------|----------------------|

--0----0----0----0----|--1----1--------------|--0----0----0----0----|

----------------------|------------3----3----|----------------------|

-------------------------|----------------------|----------------------|

--3--2--0----------------|----------------------|----------------------|

-------------------0--2--|--0----0----0----0----|--1----1--------------|

-------------1--3--------|----------------------|------------3----3----|

----------------------|----------------------|----------------------|

----------------------|--0----0--------------|----------------------|

--0----0----0----0----|----------------------|--0----0----0----0----|

----------------------|------------1----1----|----------------------|

----------------------|----------------------|----------------------|

----------------------|----------------------|----------------------|

--1----1--------------|--0----0----0----0----|--0----0----0----2----|

------------3----3----|----------------------|----------------------|

----------------------------------|----------------------------------|

----------------------------------|----------------------------------|

--3-3-3-3-3-3-3-3-3-3-3-3-3-3-3-3-|----------------------------------|

----------------------------------|--3-3-3-3-3-3-3-3-3-3-3-3-3-3-3-3-|

----------------------------------|----------------------------------|

----------------------------------|----------------------------------|

--1-1-1-1-1-1-1-1-1-1-1-1-1-1-1-1-|--0-0-0-0-0-0-0-0-0-0-0-0-0-0-0-0-|

----------------------------------|----------------------------------|

----------------------------------|----------------------------------|

----------------------------------|--0-0-0-0-0-0-0-0-0-0-0-0-0-0-0-0-|

----------------------------------|----------------------------------|

--1-1-1-1-1-1-1-1-1-1-1-1-1-1-1-1-|----------------------------------|

----------------------------------|----------------------------------|

--2-2-2-2-2-2-2-2-2-2-2-2-2-2-2-2-|--2-2-2-2-2-2-2-2-2-2-2-2-2-2-2-2-|

----------------------------------|----------------------------------|

----------------------------------|----------------------------------|

----------------------------------|----------------------------------|

----------------------------------|----------------------------------|

--3-3-3-3-3-3-3-3-3-3-3-3-3-3-3-3-|----------------------------------|

----------------------------------|--3-3-3-3-3-3-3-3-3-3-3-3-3-3-3-3-|

----------------------------------|----------------------------------|

----------------------------------|----------------------------------|

--1-1-1-1-1-1-1-1-1-1-1-1-1-1-1-1-|--0-0-0-0-0-0-0-0-0-0-0-0-0-0-0-0-|

----------------------------------|----------------------------------|

----------------------------------|----------------------------------|

----------------------------------|----------------------------------|

----------------------------------|----------------------------------|

--1-1-1-1-1-1-1-1-1-1-1-1-1-1-1-1-|--0-0-0-0-0-0-0-0-0-0-0-0-0-0-0-0-|

------------------|----------------------|-------------------|

------------------|----------------------|-------------------|

------------------|------0----0-------0--|-------------------|

------------------|--------------3-------|----------------1--|

-------------------|------------------|----------------------|

----------0--------|------------------|----------------------|

-------------------|------------------|------0----0-------0--|

-------------------|------------------|--------------3-------|

-------------------|-------------------|----------------------|

-------------------|-------------------|----------------------|

-------------------|-------------------|----------------------|

----------------1--|----------3--------|--0----0----0----0----|

----------------------|----------------------|----------------------|

----------------------|----------------------|----------------------|

----------------------|----------------------|----------------------|

--0----0----0----0----|--0----0----0----0----|--0----1----3----3----|

----------------------|----------------------|----------------------|

----------------------|----------------------|----------------------|

----------------------|----------------------|----------------------|

--0----0----0----0----|--0----0----0----0----|--0----0----0----0----|

-------------------|----------------------------------|

-------------------|----------------------------------|

-------------------|--0-0-0-0-0-0-0-0-0-0-0-0-0-0-0-0-|

--0----1----3------|----------------------------------|

----------------------------------|----------------------------------|

----------------------------------|----------------------------------|

--0-0-0-0-0-0-0-0-0-0-0-0-0-0-0-0-|--0-0-0-0-0-0-0-0-0-0-0-0-0-0-0-0-|

----------------------------------|----------------------------------|

---------------------|----------------------------------|

---------------------|----------------------------------|

--1------1------1----|--0-0-0-0-0-0-0-0-0-0-0-0-0-0-0-0-|

---------------------|----------------------------------|

----------------------------------|----------------------------------|

----------------------------------|----------------------------------|

--0-0-0-0-0-0-0-0-0-0-0-0-0-0-0-0-|--0-0-0-0-0-0-0-0-0-0-0-0-0-0-0-0-|

----------------------------------|----------------------------------|

----------------------------------|----------------------------------|

--0-0-0-0-0-0-0-0-0-0-0-0-0-0-0-0-|----------------------------------|

----------------------------------|--0-0-0-0-0-0-0-0-0-0-0-0-0-0-0-0-|

----------------------------------|----------------------------------|

----------------------------------|----------------------------------|

----------------------------------|----------------------------------|

--0-0-0-0-0-0-0-0-0-0-0-0-0-0-0-0-|--0-0-0-0-0-0-0-0-0-0-0-0-0-0-0-0-|

----------------------------------|----------------------------------|

---------------------|----------------------------------|

---------------------|----------------------------------|

--1------1------1----|--0-0-0-0-0-0-0-0-0-0-0-0-0-0-0-0-|

---------------------|----------------------------------|

----------------------------------|----------------------------------|

----------------------------------|----------------------------------|

--0-0-0-0-0-0-0-0-0-0-0-0-0-0-0-0-|--0-0-0-0-0-0-0-0-0-0-0-0-0-0-0-0-|

----------------------------------|----------------------------------|

----------------------------------|----------------------|

--0-0-0-0-0-0-0-0-0-0-0-0-0-0-0-0-|----------------------|

----------------------------------|----------------------|

----------------------------------|--0----0----0----0----|

----------------------|----------------------|----------------------|

----------------------|----------------------|----------------------|

----------------------|----------------------|----------------------|

--0----0----0----0----|--0----0----0----0----|--0----1----3----3----|

----------------------|----------------------|----------------------|

----------------------|----------------------|----------------------|

----------------------|----------------------|----------------------|

--0----0----0----0----|--0----0----0----0----|--0----0----0----0----|

-------------------|--------------------------|--------------------------|

-------------------|--------------------------|--------------------------|

-------------------|--0--0--0--0--0--------0--|--0--0--0--0--0--------0--|

--0----1----3------|-----------------3--3-----|-----------------3--3-----|

--------------------------|--------------------------|

--------------------------|--------------0--0--0-----|

--0--0--0--0--0-----------|-----------------------0--|

-----------------3--3--1--|--1--1--1--1--------------|

--------------------------|--------------------------|

--------------------------|--------------------------|

--0--0--0--0--0--------0--|--0--0--0--0--0--------0--|

-----------------3--3-----|-----------------3--3-----|

--------------------------|--------------------------|

--------------------------|--------------------------|

--0--0--0--0--0-----------|--------------------------|

-----------------3--3--1--|--1--1--1--1--3--3--3--3--|

--------------------------|--------------------------|

--------------------------|--------------------------|

--0--0--0--0--0--------0--|--0--0--0--0--0--------0--|

-----------------3--3-----|-----------------3--3-----|

--------------------------|--------------------------|

--------------------------|--------------0--0--0-----|

--0--0--0--0--0-----------|-----------------------0--|

-----------------3--3--1--|--1--1--1--1--------------|

--------------------------|--------------------------|

--------------------------|--------------------------|

--0--0--0--0--0--------0--|--0--0--0--0--0--------0--|

-----------------3--3-----|-----------------3--3-----|

--------------------------|--------------------------|-------------------|

--------------------------|--------------------------|-------------------|

--0--0--0--0--0-----------|--------------------------|--0----------------|

-----------------3--3--1--|--1--1--1--1--3--3--3--3--|-------------------|

------------------|------------------||

------------------|------------------||

------------------|------------------||

------------------|------------------||

Taken from The BassMasta -- http://www.tabs-database.com

Get this song at:  amazon.com sheetmusicplus.com

Share your thoughts

0 Comments found