Nightwish

Nightwish - Devil And The Deep Dark Ocean guitar tab

INTRO (RIFF 1) |1st,3rd | 2nd,4th |

e:--------------------------------------------|-----------|------------|

B:--------------------------------------------|-----------|------------|

G:--------------------------------------------|-7-7--6-6--|-7-7-10-10--|

D:----2-----------0---------------------------|-7-7--6-6--|-7-7-10-10--|

A:------2-3---0-2---3--0-2-------3p0-2p0------|-5-5--4-4--|-5-5--8--8--|

E:-(0)---------------------0-2-0---------3-2--|-----------|------------|

e:----------------|

B:----------------|

G:--2-2-------2-2-|

D:--2-2-------2-2-|

A:--0-0-------0-0-|

E:----------------|

e:----------------------------------|

B:----------------------------------|

G:--------7-7-6-6-------------------|

D:-3-3----7-7-6-6----3-3----5-5-5-5-|

A:-3-3----5-5-4-4----3-3----5-5-5-5-|

E:-1-1---------------1-1----3-3-3-3-|

|1st |2nd

e:-----------------------------------|----------|---------|

B:-----------------------------------|----------|---------|

G:-----------------------------------|-7-7-6-6--|---------|

D:------------10-10-9----------------|-7-7-6-6--|-5-5-5-5-|

A:-7-7-8-7--7---------8*--7-7-8-7----|-5-5-4-4--|-5-5-5-5-|

E:-----------------------------------|----------|-3-3-3-3-|

e:---------------------------------------------|

B:---------------------------------------------|

G:---------------------------------------------|

D:-2-2-----2-2-----10-10----10-10------5-5-5-5-|

A:-2-2-----2-2-----10-10----10-10------5-5-5-5-|

E:-0-0-----0-0------8--8-----8--8------3-3-3-3-|

(2:04) Guitar is back

e:-------------------------|

B:-------------------------|

G:-------------------------|

D:-2--------7-9-10--10---9-| x2

A:-2--------7-9-10--10---9-|

E:-0--------5-7--8---8---7-|

e:----------------------------------------|--------------------------------|

B:----------------------------------------|--------------------------------|

G:----------------------------------------|*------------------------------*|

D:-2-2-2-2-2--2-2-2-2-2--2-2-2--2-2-2-2-2-|*--5--5-5-5--5-5-5--5-5-5--5-5-*| x2

A:-2-2-2-2-2--2-2-2-2-2--2-2-2--2-2-2-2-2-|---5--5-5-5--5-5-5--5-5-5--5-5--|

E:-0-0-0-0-0--0-0-0-0-0--0-0-0--0-0-0-0-0-|---3--3-3-3--3-3-3--3-3-3--3-3--|

. . . . . . . . . . . . . . . . . . . . . . . . . . . . . .

e:--------------|

B:--------------|

G:--------------|

D:-2------10--9-| x2

A:-2------10--9-|

E:-0-------8--7-|

|1st,3rd|2nd,4th|

e:--------------------------------------|-------|-------|

B:--------------------------------------|-------|-------|

G:--------------------------------------|-------|-------|

D:-------------4---6---7---6---4--------|---2---|--10---| x4

A:-4---6---7-----------------------7----|---2---|--10---|

E:--444-444-444-444-444-444-444-444-444-|---0---|---8---|

e:----------------------------------|

B:----------------------------------|

G:----------------------------------|

D:-2-2-----2-2-----10-10----10-10---|

A:-2-2-----2-2-----10-10----10-10---|

E:-0-0-----0-0------8--8-----8--8---|

e:|---------------------------|---------------------------|

B:|---------------------------|---------------------------|

G:|*-------------------------*|---------------------------|

D:|*-5---2-4-5-7----9--------*|-5---2-4-5-7----9---10-----|

A:|--5---2-4-5-7----9---------|-5---2-4-5-7----9---10-----|

E:|--3---0-2-3-5----7---------|-3---0-2-3-5----7----8-----|

e:|---------------------------------|

B:|---------------------------------|

G:|---------------------------------|

D:|--10---2-4-5-7----9--------/10-7-|

A:|--10---2-4-5-7----9--------------|

E:|---8---0-2-3-5----7--------------|

Get this song at:  amazon.com sheetmusicplus.com

Share your thoughts

0 Comments found