Nightwish

Nightwish - Deep Silent Complete guitar tab

Born from silence, silence full of it

(Am) (Dm) (G) (Cadd11) (C)

A perfect concert my best friend

Am Dm Cadd11 G

So much to live for, so much to die for

Am Dm G Cadd11 C

If only my heart had a home

A# Gm7 Dm

Sing what you can`t say

Am Dm

Forget what you can`t play

G Cadd11 C

Hasten to drown into beautiful eyes

Am Dm Cadd11 G

Walk within my poetry, this dying music

Am Dm G Cadd11 c

My loveletter to nobody

A# Gm7 Dm

I play the verses like this :

Am Dm G Cadd11

e:-0-----0---------1-----0----------3-----1---------1-----1-0-----0-------|

B:-1-1-----1---1---3-3-----3---3----3-3-----3---3---1-1-------1-----------|

G:-2---2-----2---2-2---2-----2---2--0---0-----0---0-0---0-------0---------|

D:-2---------------0----------------0---------------2---------------------|

A:-0--------------------------------2---------------3---------------------|

E:----------------------------------3-------------------------------------|

Am Dm Cadd11 G

e:-0-----0---------1-----0---------1-----1-0-----0---3------3-------------|

B:-1-1-----1---1---3-3-----3---3---1-1-------1-------3-3------3---3-------|

G:-2---2-----2---2-2---2-----2---2-0---0-------0-----0---0------0---0-----|

D:-2---------------0---------------2-----------------0--------------------|

A:-0-------------------------------3-----------------2--------------------|

E:---------------------------------------------------3--------------------|

Am Dm G Cadd11

e:-0-----0---------1-----0---------3-----1---------1-----1-0-----0--------|

B:-1-1-----1---1---3-3-----3---3---3-3-----3---3---1-1-------1------------|

G:-2---2-----2---2-2---2-----2---2-0---0-----0---0-0---0-------0----------|

D:-2---------------0---------------0---------------2----------------------|

A:-0-------------------------------2---------------3----------------------|

E:---------------------------------3--------------------------------------|

A# Gm7 Dm

e:-------------1-----1---------1------------------------------------------|

B:-3-----3-----3-3-----3---3---3------------------------------------------|

G:-3-3-----3---3---3-----3---3-2------------------------------------------|

D:-3---3-----3-0---------------0------------------------------------------|

A:-1----------------------------------------------------------------------|

E:-------------3----------------------------------------------------------|

e:--------------------------------------------------------------------------|

B:--------------------------------------------------------------------------|

G:-------------------5----------8----------------5----8---3-----------------|

D:-3-3-3-3---5---3---5--3-2-5---8---8----5---3---5--7-8---3---3-------------|

A:-1-1-1-1---5---3---3--1-0-5---6---8--7-5---3---3--5-6---1---3-------------|

E:-----------3---1----------3-------6--5-3---1----------------1-------------|

VERSE 2 (1:47)

CHORUS

GUITAR SOLO

e:--------------------------------------------------------------------------|

B:-------------11-10----10-11p10-8~-----11-10----8~------------------------|

G:-------------------10------------------------10----10-7~-----------------|

D:--------------------------------------------------------------------------|

A:-3-3-3-3------------------------------------------------------------------|

E:-1-1-1-1------------------------------------------------------------------|

e:--------------------------------------------------------------------------|

B:-11-10----10-11p10-8~-(hold)-----8-10-11----------------------------------|

G:-------10--------------------------------10-8-7-5~-----------------------|

D:--------------------------------------------------------------------------|

A:--------------------------------------------------------------------------|

E:--------------------------------------------------------------------------|

e:--------------------------------------------------------------------------|

B:--------------------------------------------------------------------------|

G:----------------------5---8-----8-----------------------------------------|

D:-5--------5---5---5---5---8--3--8----3----5------------------------------|

A:-5--------5---5---5---3---6--3--6----3----5------------------------------|

E:-3--------3---3---3----------1-------1----3------------------------------|

e:--------------------------------------------------------------------------|

B:----------------------------------------------------------------2 TIMES---|

G:---------------------------------------8-----8-----8----5-----------------|

D:---5-----5-----5----3-5-----5-----5----8-----8-----8----5-----------------|

A:---5-----5-----5----3-5-----5-----5----6-6-6-6-6-6-6...-3-----------------|

E:--3-3-3-3-3-3-3...-1-3-3-3-3-3-3-3...------------------------------------|

e:----------------------------|

B:----------------------------|

G:------5--4---------5--4---4-|

D:-2----5--4----2----5--4---4-|

A:-2----3--2----2----3--2---2-|

E:-0------------0-------------|

e:--------------------------------------------------------------------------|

B:--------------------------------------------------------------------------|

G:------------------------------5-----5-----5-----2-----4-TIMES-------------|

D:-2-----2-----2-----2-----2----5-----5-----5-----2-----THEN END WITH-----2-|

A:-2-----2-----2-----2-----2----3-3-3-3-3-3-3...--0-----------------------2-|

E:-0-0-0-0-0-0-0-0-0-0-0-0-0...-------------------------------------------0-|

Get this song at:  amazon.com sheetmusicplus.com

Share your thoughts

0 Comments found