Nightwish

Nightwish - Deep Silent Complete bass tab

G||------------------|------------------|------------------|------------------|

D||------------------|------------------|------------------|------------------|

A||------------------|------------------|------------------|------------------|

E||------------------|------------------|------------------|------------------|

-------------------|-------------------|-------------------|------------------|

-------------------|-------------------|-------------------|------------------|

--3----------------|-------------------|--0----------------|------------------|

-------------------|--3----------------|-------------------|------------------|

-------------------|-------------------|-------------------|------------------|

-------------------|-------------------|-------------------|------------------|

-------------------|-------------------|--0----------------|------------------|

--1----------------|--3----------------|-------------------|------------------|

--------------------------|--------------------------|

--------------------------|--------------------------|

--3--3--3--3--3--3--3--3--|--5--5--5--5--5--5--5--5--|

--------------------------|--------------------------|

--------------------------|--------------------------|

--------------------------|--------------------------|

--0--0--0--0--0--0--0--0--|--0--0--0--0--0--0--0--0--|

--------------------------|--------------------------|

--------------------------|--------------------------|

--------------------------|--------------------------|

--5--5--5--5--5--5--5--5--|--3--3--3--3--3--3--3--3--|

--------------------------|--------------------------|

--------------------------|------------------------|-------------------|

--------------------------|------------------------|-------------------|

--------------------------|--------------3----2----|--0----------------|

--3--3--3--3--3--3--3--3--|--3--3--3--3------------|-------------------|

------------------|-------------------|------------------|-------------------|

------------------|-------------------|------------------|-------------------|

------------------|-------------------|------------------|-------------------|

------------------|--0----------------|------------------|--3----------------|

------------------|-------------------|--------------------|-------------------|

------------------|-------------------|--------------------|-------------------|

------------------|--0----------------|--3-----------------|--0----------------|

------------------|-------------------|-----------3--------|-------------------|

------------------|-------------------|------------------|-------------------|

------------------|-------------------|------------------|-------------------|

------------------|-------------------|------------------|-------------------|

------------------|--0----------------|------------------|--3----------------|

------------------|-------------------|-------------------|

------------------|-------------------|-------------------|

------------------|-------------------|-------------------|

------------------|--1----------------|--3----------------|

--------------------------|--------------------------|

--------------------------|--------------------------|

--3--3--3--3--3--3--3--3--|--------------------------|

--------------------------|--3--3--3--3--3--3--3--3--|

--------------------------|--------------------------|

--------------------------|--------------------------|

--------------------------|--------------------------|

--5--5--5--5--5--5--5--5--|--5--5--5--5--5--5--5--5--|

--------------------------|--------------------------|

--------------------------|--------------------------|

--------------------------|--------------------------|

--1--1--1--1--1--1--1--1--|--3--3--3--3--3--3--3--3--|

--------------------------|--------------------------|

--------------------------|--------------------------|

--------------------------|--------------------------|

--5--5--5--5--5--5--5--5--|--5--5--5--5--5--5--5--5--|

--------------------------|--------------------------|

--------------------------|--------------------------|

--3--3--3--3--3--3--3--3--|--5--5--5--5--5--5--5--5--|

--------------------------|--------------------------|

--------------------------|--------------------------|

--------------------------|--------------------------|

--------------------------|--------------------------|

--5--5--5--5--5--5--5--5--|--5--5--5--5--5--5--5--5--|

--------------------------|--------------------------|

--------------------------|--------------------------|

--5--5--5--5--5--5--5--5--|--3--3--3--3--3--3--3--3--|

--------------------------|--------------------------|

--------------------------|------------------------|-------------------|

--------------------------|------------------------|-------------------|

--------------------------|--------------3----2----|--0----------------|

--3--3--3--3--3--3--3--3--|--3--3--3--3------------|-------------------|

------------------|-------------------|------------------|-------------------|

------------------|-------------------|------------------|-------------------|

------------------|-------------------|------------------|-------------------|

------------------|--0----------------|------------------|--3----------------|

------------------|-------------------|--------------------|-------------------|

------------------|-------------------|--------------------|-------------------|

------------------|--0----------------|--3-----------------|--0----------------|

------------------|-------------------|-----------3--------|-------------------|

------------------|-------------------|------------------|-------------------|

------------------|-------------------|------------------|-------------------|

------------------|-------------------|------------------|-------------------|

------------------|--0----------------|------------------|--3----------------|

------------------|-------------------|-------------------|

------------------|-------------------|-------------------|

------------------|-------------------|-------------------|

------------------|--1----------------|--3----------------|

--------------------------|--------------------------|

--0--0--0--0--0--0--0--0--|--0--0--0--0--0--0--0--0--|

--------------------------|--------------------------|

--------------------------|--------------------------|

--------------------------|--------------------------|

--------------------------|--------------------------|

--3--3--3--3--3--3--3--3--|--3--3--3--3--3--3--3--3--|

--------------------------|--------------------------|

--------------------------|--------------------------|

--0--0--0--0--0--0--0--0--|--0--0--0--0--0--0--0--0--|

--------------------------|--------------------------|

--------------------------|--------------------------|

--------------------------|--------------------------|

--------------------------|--------------------------|

--------------------------|--------------------------|

--3--3--3--3--3--3--3--3--|--3--3--3--3--3--3--3--3--|

--------------------------|--------------------------|

--0--0--0--0--0--0--0--0--|--0--0--0--0--0--0--0--0--|

--------------------------|--------------------------|

--------------------------|--------------------------|

--------------------------|--------------------------|

--------------------------|--------------------------|

--3--3--3--3--3--3--3--3--|--3--3--3--3--3--3--3--3--|

--------------------------|--------------------------|

--------------------------|--------------------------|

--0--0--0--0--0--0--0--0--|--0--0--0--0--0--0--0--0--|

--------------------------|--------------------------|

--------------------------|--------------------------|

--------------------------|--------------------------|------------------|

--------------------------|--------------------------|------------------|

--------------------------|--------------------------|------------------|

--3--3--3--3--3--3--3--3--|--3--3--3--3--3--3--3--3--|------------------|

------------------|------------------|------------------|------------------|

------------------|------------------|------------------|------------------|

------------------|------------------|------------------|------------------|

------------------|------------------|------------------|------------------|

------------------|------------------|------------------|------------------|

------------------|------------------|------------------|------------------|

------------------|------------------|------------------|------------------|

------------------|------------------|------------------|------------------|

------------------|------------------|------------------|------------------|

------------------|------------------|------------------|------------------|

------------------|------------------|------------------|------------------|

------------------|------------------|------------------|------------------|

------------------|------------------|------------------|

------------------|------------------|------------------|

------------------|------------------|------------------|

------------------|------------------|------------------|

--------------------------|--------------------------|

--0--0--0--0--0--0--0--0--|--0--0--0--0--0--0--0--0--|

--------------------------|--------------------------|

--------------------------|--------------------------|

--------------------------|--------------------------|

--------------------------|--------------------------|

--3--3--3--3--3--3--3--3--|--3--3--3--3--3--3--3--3--|

--------------------------|--------------------------|

--------------------------|--------------------------|

--0--0--0--0--0--0--0--0--|--0--0--0--0--0--0--0--0--|

--------------------------|--------------------------|

--------------------------|--------------------------|

--------------------------|--------------------------|

--------------------------|--------------------------|

--------------------------|--------------------------|

--3--3--3--3--3--3--3--3--|--3--3--3--3--3--3--3--3--|

--------------------------|--------------------------|

--------------------------|--------------------------|

--3--3--3--3--3--3--3--3--|--------------------------|

--------------------------|--3--3--3--3--3--3--3--3--|

--------------------------|--------------------------|

--------------------------|--------------------------|

--------------------------|--------------------------|

--5--5--5--5--5--5--5--5--|--5--5--5--5--5--5--5--5--|

--------------------------|--------------------------|

--------------------------|--------------------------|

--------------------------|--------------------------|

--1--1--1--1--1--1--1--1--|--3--3--3--3--3--3--3--3--|

--------------------------|--------------------------|

--------------------------|--------------------------|

--------------------------|--------------------------|

--5--5--5--5--5--5--5--5--|--5--5--5--5--5--5--5--5--|

--------------------------|--------------------------|

--------------------------|--------------------------|

--3--3--3--3--3--3--3--3--|--5--5--5--5--5--5--5--5--|

--------------------------|--------------------------|

--------------------------|--------------------------|

--------------------------|--------------------------|

--------------------------|--------------------------|

--5--5--5--5--5--5--5--5--|--5--5--5--5--5--5--5--5--|

--------------------------|--------------------------|

--------------------------|--------------------------|

--5--5--5--5--5--5--5--5--|--3--3--3--3--3--3--3--3--|

--------------------------|--------------------------|

--------------------------|------------------------|--------------------------|

--------------------------|------------------------|--------------------------|

--------------------------|--------------3----2----|--3--3--3--3--3--3--3--3--|

--3--3--3--3--3--3--3--3--|--3--3--3--3------------|--------------------------|

--------------------------|--------------------------|

--------------------------|--------------------------|

--------------------------|--------------------------|

--3--3--3--3--3--3--3--3--|--5--5--5--5--5--5--5--5--|

--------------------------|--------------------------|

--------------------------|--------------------------|

--------------------------|--------------------------|

--5--5--5--5--5--5--5--5--|--1--1--1--1--1--1--1--1--|

--------------------------|--------------------------|

--------------------------|--------------------------|

--------------------------|--------------------------|

--3--3--3--3--3--3--3--3--|--5--5--5--5--5--5--5--5--|

--------------------------|--------------------------|

--------------------------|--------------------------|

--------------------------|--3--3--3--3--3--3--3--3--|

--5--5--5--5--5--5--5--5--|--------------------------|

--------------------------|--------------------------|

--------------------------|--------------------------|

--5--5--5--5--5--5--5--5--|--------------------------|

--------------------------|--5--5--5--5--5--5--5--5--|

--------------------------|--------------------------|

--------------------------|--------------------------|

--------------------------|--5--5--5--5--5--5--5--5--|

--5--5--5--5--5--5--5--5--|--------------------------|

--------------------------|--------------------------|------------------------|

--------------------------|--------------------------|------------------------|

--3--3--3--3--3--3--3--3--|--------------------------|--------------3----2----|

--------------------------|--3--3--3--3--3--3--3--3--|--3--3--3--3------------|

--------------------------|--------------------------|

--------------------------|--------------------------|

--3--3--3--3--3--3--3--3--|--------------------------|

--------------------------|--3--3--3--3--3--3--3--3--|

--------------------------|--------------------------|

--------------------------|--------------------------|

--------------------------|--------------------------|

--5--5--5--5--5--5--5--5--|--5--5--5--5--5--5--5--5--|

--------------------------|--------------------------|

--------------------------|--------------------------|

--------------------------|--------------------------|

--1--1--1--1--1--1--1--1--|--3--3--3--3--3--3--3--3--|

--------------------------|--------------------------|

--------------------------|--------------------------|

--------------------------|--------------------------|

--5--5--5--5--5--5--5--5--|--5--5--5--5--5--5--5--5--|

--------------------------|--------------------------|

--------------------------|--------------------------|

--3--3--3--3--3--3--3--3--|--5--5--5--5--5--5--5--5--|

--------------------------|--------------------------|

--------------------------|--------------------------|

--------------------------|--------------------------|

--------------------------|--------------------------|

--5--5--5--5--5--5--5--5--|--5--5--5--5--5--5--5--5--|

--------------------------|--------------------------|

--------------------------|--------------------------|

--5--5--5--5--5--5--5--5--|--3--3--3--3--3--3--3--3--|

--------------------------|--------------------------|

--------------------------|------------------------|------||

--------------------------|------------------------|------||

--------------------------|--------------3----2----|------||

--3--3--3--3--3--3--3--3--|--3--3--3--3------------|------||

Taken from The BassMasta -- http://www.tabs-database.com

Get this song at:  amazon.com sheetmusicplus.com

Share your thoughts

0 Comments found