Nightwish

Nightwish - Dead To The World guitar tab

tabs-database.com[http://www.tabs-database.com.com/]

Nightwish - Dead to the world

(webmaster at tabs-database.com.com)....from finland kokkola

standart tuning e,a,d,g,b,e

e:---------------------------------------------------------------------------

B:---------------------------------------------------------------------------

G:---------------------------------------------------------------------------

D:------------------3------------------------------6--6---------3---------8--

A:-3-----3--3-------1------6-5---------3-----------4--4---------1----6----6--

E:-1-----1--1--------------4-3---------1-----------------------------4-------

e:--------------------------------------------------------------------------

B:--------------------------------------------------------------------------

G:----9-----9-----9-10--7----7---7-9--5-----5-----5-7--4-----4-----5-7------

D:------7-7---7-7--------7-7--7-7-------7-7---7-7--------5-5---5-5----------

A:--------------------------------------------------------------------------

E:--------------------------------------------------------------------------

e:-------------------------------------------------------------------------

B:-------------------------------------------------------------------------

G:---9-----9-----9-10--7-----7-----7-9---10-----10-----10-12-10-9-7-10-----

D:-----7-7---7-7---------7-7---7-7----------7-7----7-7---------------------

A:-------------------------------------------------------------------------

E:-------------------------------------------------------------------------

e:--------------------------------------------------------------------------

B:--------------------------------------------------------------------------

G:----9-----9-----9-10--7----7---7-9--5-----5-----5-7--4-----4-----5-7------

D:------7-7---7-7--------7-7--7-7---------7-7---7-7--------5-5---5-5--------

A:--------------------------------------------------------------------------

E:--------------------------------------------------------------------------

e:-----------------------------------------------------------------------

B9----9-----9-10--7-----7---7-9--10----10----10---12-10-9-7-10-9-7-5-9-7-5-4

G-7-7---7-7---------7-7--7-7--------7-7---7-7-------------------------------5-7

D:----------------------------------------------------------------------------

A:----------------------------------------------------------------------------

E:----------------------------------------------------------------------------

0:39

e:----------------------------------------------------------------------------

B:----------------------------------------------------------------------------

G:-----------------------------------------------------------------------------

D:----------------5--7----------------------------------------------------------

A7--7-----7--5----------7-----7--5---3-2-----5-----5--3---2-3---5-----5--3---2-3

E5----5-5------5----------5-5------5-----------3-3------3---------3-3------3----

e:-----------------------------------------------------------------------------

B:-----------------------------------------------------------------------------

G:-----------------------------------------------------------------------------

D:----------------5--7---------------------------------------------------------

A:7-----7--5------------7-----7--5---3-2-----5-----5--3---2-3---5-----5--3---2-3

E:5-5------5------------5-5------5-----------3-3------3---------3-3------3----

e:-----------------------------------------------------------------------------

B:-----------------------------------------------------------------------------

G:-7-7-7-7-7-7-7-7-7-7-7-7-7-7-7-7---------------------------------------------

D:-5-5-5-5-5-5-5-5-5-5-5-5-5-5-5-5---------------------------------------------

A:----------------------------------------5--7-7-----5-3-3---------------------

E:----------------------------------------3--5-5-----3-1-1---------------------

e:----------------------------------------------------------------------------

B:----------------------------------------------------------------------------

G:----------------------------------------------------------------------------

D:---------------5--7---------------------------------------------------------

A:7-----7--5-----------7-----7--5---3-2----5-----5--3---2-3---5-----5--3---2-3

E:--5-5------5-----------5-5------5----------3-3------3---------3-3------3----

e:----------------------------------------------------------------------------

B:----------------------------------------------------------------------------

G:-7-7-7-7-7-7-7-7-7-7-7-7-7-7-7-7--------------------------------------------

D:-5-5-5-5-5-5-5-5-5-5-5-5-5-5-5-5--------------------------------------------

A:----------------------------------------5--7-7-----5-3-3--------------------

E:----------------------------------------3--5-5-----3-1-1--------------------

1:07

e:---------------------------------------------------------------------------

B:---------------------------------------------------------------------------

G:---------------------------------------------------------------------------

D:--7---------------2---------2---------2---------2---------2---------2------

A:--5-5-5-5.......--0-0-0-0-0-0-0-0-0-0-0-0-0-0-0-0-0-0-0-0-0-0-0-0-0-0------

E:---------------------------------------------------------------------------

e:--------------------------------------------------------------------------

B:--------------------------------------------------------------------------

G:--------------------------------------------------------------------------

D:-5-----------7-------2--5-------7---------7---------7---7---------7-------

A:-3-----5-----5-------0--3-------5-5-5-5-5-5-5-5-5-5-5-5-5-5-5-5-5-5-------

E:-------3------------------------------------------------------------------

e:--------------------------------------------------------------------------

B:------------------------------------------------------------------------

G:-------------------------------------------------------------------------

D:--2-------2-------2-----2-------2-------2---------------------------------

A:--0-0-0-0-0-0-0-0-0-0-0-0-0-0-0-0-0-0-0-0-0-0--------3---5----------------

E:-----------------------------------------------------1---3----------------

e:----------------------------------------------------------------------------

B:----------------------------------------------------------------------------

G:----------------------------------------------------------------------------

D:--------------5--7----------------------------------------------------------

A:7-----7--5----------7-----7--5---3-2-----5-----5--3---2-3---5-----5--3---2-3

E:--5-5------5----------5-5------5-----------3-3------3---------3-3------3----

e:----------------------------------------------------------------------------

B:----------------------------------------------------------------------------

G:-7-7-7-7-7-7-7-7-7-7-7-7-7-7-7-7--------------------------------------------

D:-5-5-5-5-5-5-5-5-5-5-5-5-5-5-5-5--------------------------------------------

A:----------------------------------------5--7-7-----5-3-3--------------------

E:----------------------------------------3--5-5-----3-1-1--------------------

e:----------------------------------------------------------------------------

B:----------------------------------------------------------------------------

G:----------------------------------------------------------------------------

D:---------------5--7---------------------------------------------------------

A:7-----7--5----------7-----7--5---3-2-----5-----5--3---2-3---5-----5--3---2-3

E:--5-5------5----------5-5------5-----------3-3------3---------3-3------3----

1:52

e:---------------------------------------------------------------------------

B:---------------------------------------------------------------------------

G:-7-7-7-7-7-7-7-7-7-7-7-7-7-7-7-7-------------------------------------------

D:-5-5-5-5-5-5-5-5-5-5-5-5-5-5-5-5----------------------7-7-------2----------

A:----------------------------------------5--7-7-----5--5-5--5----0----5--7-7

E:----------------------------------------3--5-5-----3-------3---------3--5-5

e:--------------------------------------------------------------------------

B:---------------------------------------------------------------------------

G:--------------------------------------------------------------------------

D:----------5-------5--7--7----5---------5----7-----5---7-7---5---3-3-------

A:5---3-3---3---5---3--5--5----3---5-5---3----5-----3---5-5---3---1-1---3--5

E:3---1-1-------3------------------3-3----------------------------------1--3

2:22

e------------------------------------------------------------------------------

B------------------------------------------------------------------------------

G14------14-----14-15-12-----12-----12-14-10-----10-----10-12-9-----9-----10-12

D--12-12---12-12--------12-12--12-12--------12-12--12-12-------10-10-10-10-----

A:----------------------------------------------------------------------------

E:----------------------------------------------------------------------------

e:-------------------------------------------------------------------------

B:-------------------------------------------------------------------------

G:14-----14-----14-15-12-----12-----12-14-15-----15-----15-17-15-14-12-15--

D:--12-12--12-12--------12-12--12-12--------12-12--12-12-------------------

A:-------------------------------------------------------------------------

E:-------------------------------------------------------------------------

e:------------------------------------------------------------------------------

B:------------------------------------------------------------------------------

G14------14------14-15-12-----12-----12-14-10-----10-----10-12-9-----9-----10-12

D:-12-12---12-12---------12-12--12-12--------12-12--12-12-------10-10-10-10-----

A:------------------------------------------------------------------------------

E:------------------------------------------------------------------------------

e:---------------------------------------------------------------------------

B:---------------------------------------------------------------------------

G:-14-----14-----14-15-12-----12-----12-14-15-----15-----15-17-15-14-12-15---

D:---12-12--12-12--------12-12--12-12--------12-12--12-12--------------------

A:---------------------------------------------------------------------------

E:----------------------------------------------------------------------------

Added by tabs-database.com and our distinguished partners

Get this song at:  amazon.com sheetmusicplus.com

Share your thoughts

0 Comments found