Nightwish

Nightwish - Dead Gardens Intro guitar tab

Dead gardens tab by Nightwish

Song: Dead Gardens

Artist: Nightwish

Album: Once

As tabbed by David Oriola

diark76@hotmail.com

Tune your guitar 1 step down! (D tuning)

It works better using a big distorsion

Intro

Pm.. .. .... .... ...

-----------------------------------------------------------|

-----------------------------------------------------------|

-----------------------------------------------------------|

--55--5---88--8---1111--11--1212--12-----------------------|

--55--5---88--8---1111--11--1212--12-------4---------------|

--33--3---66--6----9-9---9--1010--10---3-6-----------------|

Pm

-----------------------------------------------------------|

-----------------------------------------------------------|

-----------------------------------------------------------|

-----------------------------------------------------------|

------4-------5-5-5-5--5-----4-------5-5-------------------|

--3-6--3-4-3--3-3-3-3--3-3-6--3-4-3--3-3--4-3-4-3-4--------|

Pm .. .. . .. ..

-----------------------------------------------------------|

-----------------------------------------------------------|

-----------------------------------------------------------|

-----------------------------------------------------------|

------4-------55-5-55-5-5----------------4-------5-55-5-55-|

--3-6--3-4-3--33-3-33-3-3-4-3-4-3-4--3-6--3-4-3—-3-33-3-33-|

Pm .. .....

--------------------------------------------|

--------------------------------------------|

--------------------------------------------|

-------------------------------------5-4----|

--5-55-----4-------------------------5-4----|

--3-33-3-6---0--0-3-6-0-3-6-0-3-6----3-2----|

Get this song at:  amazon.com sheetmusicplus.com

Share your thoughts

0 Comments found