Nightwish

Nightwish - Dead Gardens guitar tab

Band: Nightwish

Song: Dead Gardens

Album: Once

Transcribed by: Hebert Bravo

E-mail: wizardhp_7@hotmail.com

Tune: (D)

Thanks to Roy and drewbozz

By the way my nemo tab and dark chest of wonders tab are in tuning (E)

For corrections, sugest or something please mail me. Thanks to metaltabs.

Intro

|------------------------------|

|------------------------------|

|------------------------------|

|-------------------6-----7~---|

|------5-----8---444---555~---|

|----333---666----------------|

p.m .. .. .. ..

|----------------------------------------------------------------------|

|----------------------------------------------------------------------|

|----------------------------------------------------------------------|

|-----6----------------------------------------------------------------|

|-----4------4-------55555-----4-------555-5656-----4---------6--65656-|

|-3-6----3-6---3-4-3-33333-3-6---3-4-3-333-3434-3-6---3-4-3-3343343434-|

p.m . .. ..

|---------------------------------------------------------------|

|---------------------------------------------------------------|

|---------------------------------------3-----3-----3-----3-----|

|------------------------6-2------------3-----3-----3-----3-5-2-|

|-----4---------6--6-----4-2------------1-----1-----1-----1-5-2-|

|-3-6---3-4-3-334334-3-6---0--------0-3---0-3---0-3---0-3---3-0-|

p.m .. .. . . . . . . . . . .

Verse 1 "The story behind the painting..."

|---------------------------------------------------------------------|

|---------------------------------------------------------------------|

|-----------------------------------------------------7-7-77-5-4------|

|-------------------------------5---------------------7-7-77-5-4-5-2--|x2

|-222-22-2-22-222-222-22-2-22-2-3p2h3-222-22-2-22-222-555555-3-2-5-2--|

|-000-00-0-00-000-000-00-0-00-0-------000-00-0-00-000------------3-0--|

p.m.. .. . .. ... ... .. . .. . ... .. . .. ...

"All the tales are told..."

|-------------------------------------------------------------------------|

|-------------------------------------------------------------------------|

|-5-----4---------------------7--------------------7-7--------------------|

|-5--7--2—-5p2-2h5p2-5p2—-5p2-5—5p2-2h5p2-5p2—-5p2-7-7----2---------------|

|-3--7--2—-5p2-2h5p2-5p2—-5p2-5—3p2-2h5p2-5p2—-5p2-5-5...-2—5p3p2--23/77*~|

|----5-----3p0-0h3p0-3p0003p0---3p0-0h3p0-3p0003p0--------0------30-------|

p.m .....

|--------------------------------------------------------------------|

|--------------------------------------------------------------------|

|--------------------7--------------------7-7------------------------|

|-5p2-2h5p2-5p2—-5p2-5—5p2-2h5p2-5p2—-5p2-7-7----2-------------------|

|-5p2-2h5p2-5p2—-5p2-5—3p2-2h5p2-5p2—-5p2-5-5...-2—5*~p3*~p2*~—--5*~-|

|-3p0-0h3p0-3p0003p0---3p0-0h3p0-3p0003p0--------0------------3*~----|

p.m .....

|-----------------------------|

|-----------------------------|

|-----------------------------|

|-----------------------------|

|-2-5-8-2-3-2--2-2-2-5-8-8----|

|-0-3-6-0-1-0--0-0-0-3-6-6----|

Verse 2 "My song is little..."

|-------------------------------------------------------------------------|

|-------------------------------------------------------------------------|

|-----------------------------------------------------7-7-77-5-4-----5----|

|-------------------------------5---------------------7-7-77-5-4-5-2-5--7-|

|-222-22-2-22-222-222-22-2-22-2-3p2h3-222-22-2-22-222-555555-3-2-5-0-3--7-|

|-000-00-0-00-000-000-00-0-00-0-------000-00-0-00-000------------3-0----5-|

p.m.. .. . .. ... ... .. . .. . ... .. . .. ...

|-------------------------------------------------------|

|-------------------------------------------------------|

|-------------------------------------------------------|

|-------------------------------------------------------|

|-----3p2---------3-2--2-2-2-2-2-5-7-8-2-3-2--2-2-2-2-2-|

|-3h7-----3-5-6-0-1-0--0-0-0-0-0-3-5-6-0-1-0--0-0-0-0-0-|

|-----------------------------------------------------------------------|

|-----------------------------------------------------------------------|

|-----------------------------------------------------------------------|

|-----------------------------------------------------------------------|

|-5-7-8-2-3-2-2-3-2-2-3-2-2-3-2-2-5-7-8--3-2-2-3-2-2-3-2-2-3-2-2-5-7-8--|

|-3-5-6-0-1-0-0-1-0-0-1-0-0-1-0-0-3-5-6--1-0-0-1-0-0-1-0-0-1-0-0-3-5-6--|

p.m . . . . . . . . . . . . . . . .

Interlude "Were are the wolves..."

|------------------------------------------------------------------|

|------------------------------------------------------------------|

|------------------------------------------------------------------|

|------------------------------------------------------------------|

|-22-22-22-22-2-2-22-22-22-22-2-2-66-66-66-66-6-6-66-66-66-66-6-6--|

|-00-00-00-00-0-0-00-00-00-00-0-0-44-44-44-44-4-4-44-44-44-44-4-4--|

p.m. .. .. .. . . .. .. .. .. . . .. .. .. .. . . .. .. .. .. . .

|--------------------------------------------------------------------------|

|--------------------------------------------------------------------------|

|--------------------------------------------------------------------------|

|-22-22-22-22-2-2-22-22-22-22-2-2-66-66-66-66-6-6-666--6-666-6-666--6-666-|

|-22-22-22-22-2-2-22-22-22-22-2-2-66-66-66-66-6-6-666--6-666-6-666--6-666-|

|-00-00-00-00-0-0-00-00-00-00-0-0-44-44-44-44-4-4-444--4-444-4-444--4-444-|

Riff

|---------------------|

|----------------5-3--|

|----------------4-2--|

|--2---------2---2-0--|

|--2-5-------2--------|

|--0---5-3-2-0--------|

Verse 3 "All the tales are told..."

|-----------------------------------------------------------------|

|-----------------------------------------------------------------|

|--------------------7--------------------7-7---------------------|

|-5p2-2h5p2-5p2—-5p2-5—5p2-2h5p2-5p2—-5p2-7-7----2----------------|

|-5p2-2h5p2-5p2—-5p2-5—3p2-2h5p2-5p2—-5p2-5-5...-2—5p3p2—-23/77*~-|

|-3p0-0h3p0-3p0003p0---3p0-0h3p0-3p0003p0--------0------30--------|

p.m .....

|--------------------------------------------------------------------|

|--------------------------------------------------------------------|

|--------------------7--------------------7-7------------------------|

|-5p2-2h5p2-5p2—-5p2-5—5p2-2h5p2-5p2—-5p2-7-7----2-------------------|

|-5p2-2h5p2-5p2—-5p2-5—3p2-2h5p2-5p2—-5p2-5-5...-2—5*~p3*~p2*~—--5*~-|

|-3p0-0h3p0-3p0003p0---3p0-0h3p0-3p0003p0--------0------------3*~----|

p.m .....

Outro

|------------------------------------------------|

|------------------------------------------------|

|------------------------------------------------|

|------------------------------------------------|

|-2-5-8-2-3-2--2-2-2-2-2-5-7-8-2-3-2--2-2-2-2-2--|

|-0-3-6-0-1-0--0-0-0-0-0-3-5-6-0-1-0--0-0-0-0-0--|

|------------------------------------------------------------------------|

|------------------------------------------------------------------------|

|------------------------------------------------------------------------|

|------------------------------------------------------------------------|

|-5-7-8-2----------------------------------------------------------------|

|-3-5-6-0-1-0-0-1-0-0-1-0-0-1-0-0-3-5-6-0-1-0-0-1-0-0-1-0-0-1-0-0-3-5-6--|

|------------------------------------------------------------------------|

|------------------------------------------------------------------------|

|------------------------------------------------------------------------|

|------------------------------------------------------------------------|

|---------3-2--2-2-2-2-2-5-7-8-2-3-2--2-2-2-2-2-5-7-8-2-3-2--2-2-2-2-2---|

|-0-3-6-0-1-0--0-0-0-0-0-3-5-6-0-1-0--0-0-0-0-0-3-5-6-0-1-0--0-0-0-0-0---|

p.m . . .

|--------------------------|

|--------------------------|

|--------------------------|

|--------------------------|

|-5-7-8-2-3-2--2-2-2-2-2---|

|-3-5-6-0-1-0--0-0-0-0-0---|

(03:58) (04:08) STOP(04:25)

|-----------------------||-----------------------||-----------------------|

|-----------------------||-----------------------||-----------------------|

|-----3-----3-----3-----||-----------------------||-----3-----3-----3-----|

|-----3-----3-----3-----||-----------------------||-----3-----3-----3-----|

|-----1-----1-----1-----||-----------------------||-----1-----1-----1-----|

|-0-3---0-3---0-3--...--||-0-3-6-0-3-6-0-3-6...--||-0-3---0-3---0-3--...--|

p.m.. . . . . . . . . . .

This is All ¡ENJOY!

Get this song at:  amazon.com sheetmusicplus.com

Share your thoughts

0 Comments found