Nightwish

Nightwish - Dead Boys Poem bass tab

G||------------------|------------------|------------------|------------------|

D||------------------|------------------|------------------|------------------|

A||------------------|------------------|------------------|------------------|

E||------------------|------------------|------------------|------------------|

------------------|------------------|------------------|------------------|

------------------|------------------|------------------|------------------|

------------------|------------------|------------------|------------------|

------------------|------------------|------------------|------------------|

------------------|------------------|------------------|----------------------|

------------------|------------------|------------------|----------------------|

------------------|------------------|------------------|------------1--1-1-1--|

------------------|------------------|------------------|----------------------|

----------------------|------------------------|----------------------|

----------------------|------------------------|----------------------|

----------------------|------------3--3----1-0-|----------------------|

--3-------3-3--3------|--1-------1-------------|--3-------3-3--3------|

-----------------------|----------------------|----------------------|

--1---1----------------|----------------------|-----------------0----|

----------1---1---0----|----------------------|------------3---------|

-----------------------|--3-------3-3--3------|--1-------1-----------|

----------------------|--------------------|---------------------|

--1-------1-1--1------|--------------------|------------0--------|

----------------------|--1-----------------|--0-------0----------|

----------------------|-----------1--------|---------------------|

---------------------|---------------------|---------------------|

---------------------|------------0--------|---------------------|

------------3--------|--0-------0----------|------------3--------|

--3-------3----------|---------------------|--3-------3----------|

---------------------|---------------------|---------------------|

------------0--------|---------------------|---------------------|

--0-------0----------|------------3--------|--1-------1----------|

---------------------|--3-------3----------|------------3--------|

-----------------------|----------------------|------------------------|

--0--------------------|----------------------|------------------------|

-------------1--1-1-1--|----------------------|------------3--3----1-0-|

-----------------------|--3-------3-3--3------|--1-------1-------------|

----------------------|-----------------------|----------------------|

----------------------|--1---1----------------|----------------------|

----------------------|----------1---1---0----|----------------------|

--3-------3-3--3------|-----------------------|--3-------3-3--3------|

----------------------|----------------------|--------------------|

-----------------0----|--1-------1-1--1------|--------------------|

------------3---------|----------------------|--1-----------------|

--1-------1-----------|----------------------|-----------1--------|

------------------|------------------|------------------|------------------|

------------------|------------------|------------------|------------------|

------------------|------------------|------------------|------------------|

------------------|------------------|------------------|------------------|

------------------|------------------|------------------|----------------------|

------------------|------------------|------------------|----------------------|

------------------|------------------|------------------|----------------------|

------------------|------------------|------------------|------------1--1-1-1--|

----------------------|------------------------|----------------------|

----------------------|------------------------|----------------------|

----------------------|------------3--3----1-0-|----------------------|

--3-------3-3--3------|--1-------1-------------|--3-------3-3--3------|

-----------------------|----------------------|----------------------|

--1---1----------------|----------------------|-----------------0----|

----------1---1---0----|----------------------|------------3---------|

-----------------------|--3-------3-3--3------|--1-------1-----------|

----------------------|--------------------|------------------|

--1-------1-1--1------|--------------------|------------------|

----------------------|--1-----------------|------------------|

----------------------|-----------1--------|------------------|

------------------|------------------|------------------|------------------|

------------------|------------------|------------------|------------------|

------------------|------------------|------------------|------------------|

------------------|------------------|------------------|------------------|

------------------|------------------|------------------|-------------------|

------------------|------------------|------------------|-------------------|

------------------|------------------|------------------|-------------------|

------------------|------------------|------------------|--3----------------|

------------------|------------------|------------------|-------------------|

------------------|------------------|------------------|-------------------|

------------------|------------------|------------------|-------------------|

------------------|------------------|------------------|--3----------------|

-------------------|---------------------|---------------------|

-------------------|-----------------3---|--1------------------|

-------------------|-----------3---------|---------------------|

--3----------------|--3------------------|-------1----3--------|

------------------|------------------|------------------|

------------------|------------------|------------------|

------------------|------------------|------------------|

------------------|------------------|------------------|

------------------------|-----------------------------|

------------------------|-----------------------------|

------------------------|-----------------------------|

----------3--3-3-3--3-3-|--3--3-3-3--1--3--3-3-3--3-3-|

---------------------------|------------------------|

---------------------------|------------------------|

---------------------------|------------------------|

--3--3-3-3--1--------------|------------------------|

---------------------------|-----------------------------|

---------------------------|-----------------------------|

---------------------------|-----------------------------|

----------1--3--3-3-3--3-3-|--3--3-3-3--1--3--3-3-3--3-3-|

---------------------------|------------------------|

---------------------------|------------------------|

---------------------------|------------------------|

--3--3-3-3--1--------------|------------------------|

---------------------------|-----------------------------|

---------------------------|-----------------------------|

---------------------------|-----------------------------|

----------1--3--3-3-3--3-3-|--3--3-3-3--1--3--3-3-3--3-3-|

-----------------------------|-----------------------------|

---------------1--1-1-1--1-1-|--1--1-1-1--0--1--1-1-1--1-1-|

-----------------------------|-----------------------------|

--3--3-3-3--1----------------|-----------------------------|

-----------------------------|-----------------------------|

--1--1-1---------------------|-----------------------------|

---------3-------------------|-----------------------------|

------------1--3--3-3-3--3-3-|--3--3-3-3--1--3--3-3-3--3-3-|

-----------------------------|-----------------------------|

---------------1--1-1-1--1-1-|--1--1-1-1--0--1--1-1-1--1-1-|

-----------------------------|-----------------------------|

--3--3-3-3--1----------------|-----------------------------|

-------------------------|----------------------|----------------------|

--1--1-1-----------------|----------------------|----------------------|

---------3---------------|----------------------|------------3-------3-|

------------1--0-------0-|--0-0-------0-------0-|--0-0-----------------|

----------------------|----------------------|----------------------|

----------------------|----------------------|----------------------|

--3-3-------2-------2-|--2-2-----------------|----------------------|

----------------------|------------0-------0-|--0-0-------0-------0-|

----------------------|----------------------|--------------------------|

----------------------|----------------------|--------------------------|

------------3-------3-|--3-3-------2-------2-|--2-2---------------------|

--0-0-----------------|----------------------|------------0--0-0-0--0-0-|

------------------------------|------------------------------|

------------------------------|------------------------------|

------------------------------|----------------3--3-3-3--3-3-|

--0--0-0-0--0-0-0--0-0-0--0-0-|--0--0-0-0--0-0---------------|

------------------------------|----------------------------|

------------------------------|----------------------------|

--3--3-3-3--3-3-3--3-3-3--3-3-|--3--3-3-0------------------|

------------------------------|--------------0--0-0-0--0-0-|

------------------------------|------------------------------|

------------------------------|------------------------------|

------------------------------|----------------3--3-3-3--3-3-|

--0--0-0-0--0-0-0--0-0-0--0-0-|--0--0-0-0--0-0---------------|

------------------------------|----------------------------|

------------------------------|----------------------------|

--3--3-3-3--3-3-3--3-3-3--3-3-|--3--3-3-0------------------|

------------------------------|--------------0--0-0-0--0-0-|

------------------------------|------------------------------|

------------------------------|------------------------------|

------------------------------|----------------3--3-3-3--3-3-|

--0--0-0-0--0-0-0--0-0-0--0-0-|--0--0-0-0--0-0---------------|

------------------------------|----------------------------|

------------------------------|----------------------------|

--3--3-3-3--3-3-3--3-3-3--3-3-|--3--3-3-0------------------|

------------------------------|--------------0--0-0-0--0-0-|

------------------------------|------------------------------|

------------------------------|------------------------------|

------------------------------|----------------3--3-3-3--3-3-|

--0--0-0-0--0-0-0--0-0-0--0-0-|--0--0-0-0--0-0---------------|

------------------------------|-----------------------|------------------|

------------------------------|-----------------------|------------------|

--3--3-3-3--3-3-3--3-3-3--3-3-|--3--3-3-0-------------|------------------|

------------------------------|--------------0--------|------------------|

Taken from The BassMasta -- http://www.tabs-database.com

Get this song at:  amazon.com sheetmusicplus.com

Share your thoughts

0 Comments found