Nightwish

Nightwish - Dark Chest Of Wonders guitar tab

Band: Nightwish

Aibum: Once

Song: Dark Chest of Wonders

Transcribed by: Hebert Bravo

E-mail: wizardhp_7@hotmail.com

Ok, thanks again to ultimate-guitar. Remember the marks (+) is for a

better understanding. For corrections or suggest please mail me.

Well this is my best work, I expect to please you. ¬°THANKS NIGHTWISH!

Intro (00:03)

|--------------------------------------------------------------|

|--------------------------------------------------------------|

|--------------------------------------------------------------|

|-5-3-5-3-22-5-3-5-3-----5-3-5---------------------------------|

|-5-3-5-3-22-5-3-5-3-----5-3-5-2h3-2h3-6-5-3-2-2h3p2-2-2h3p2-2-|

|-3010301000-30103010031030103-0h1-0h1-4-3-1-0-0h1p0-0-0h1p0-0-|

+ + + + + + + +++++ + + _________

Riff 1 (00:14) I don't sure about this| |

|-------------------------------------------------------------------|

|-------------------------------------------------------------------|

|---------------------------------------------------1-1b--/13~-/13~-|

|---------------------------------------------------------/13~-/13~-|

|---------------------------------------------4-2--2-2--------------|

|3001003001001000-300100300101310-300100300101-4-30-----------------|

Riff 2(00:24)

|------------------------------------------------------------------|

|------------------------------------------------------------------|

|--------------------------------------------------------------3-3-|

|-5-3-5-3-22-5-3-5-3-----5-3-5---------------------------------3-3-|

|-5-3-5-3-22-5-3-5-3-----5-3-5-2h3-2h3-6-5-3-2-2h3p2-2-2h3p2-2-1-1-|

|-3010301000-30103010031030103-0h1-0h1-4-3-1-0-0h1p0-0-0h1p0-0-----|

+ + + + + + + +++++ + +

|-----------------------------------------------------|

|-----------------------------------------------------|

|----------------------------------------------4--2-5-|

|-5-3-5-3-22-5-3-5-3-----5-3-5-----------------4--2-5-|

|-5-3-5-3-22-5-3-5-3-----5-3-5-2h3-2h3-6-5-3-2-2--0-3-|

|-3010301000-30103010031030103-0h1-0h1-4-3-1-0--------|

+ + + + + + + +++++ + +

Riff 3 (00:44)

|-----------------------------------------------------------------|

|-----------------------------------------------------------------|

|-----------------------------------------------------------------|

|-5-----3-5---3-5-3-5--------3---3-5-3-7-----5-7---5-7-5-7---5--2-|

|-5-----3-5---3-5-3-5--------3---3-5-3-7-----5-7---5-7-5-7---5--2-|

|-3333331-33331-3-1-33333333311111-3-1-5555553-55553-5-3-55553--0-|

+++++ +++ ++++++++ +++ +++++ +++ +++

Chours (01:02)

|---------------------------------------------------------------|

|---------------------------------------------------------------|

|---------------------------------------2-2-2-2-2-2-------------|

|---2--2--2-----------2--2--2-----------2-2-2-2-2-2--3-3-5-5-55-|x2

|---2--2--2-2h3/52---2--2--2-2h3/52-0000000-0-0-0--3-3-5-5-55-|

|-000000000-0h1/3

Get this song at:  amazon.com sheetmusicplus.com

Share your thoughts

0 Comments found