Nightwish

Nightwish - Dark Chest Of Wonders (complete) bass tab

Dropped D Tuning..

G :---------------|---------------|---------|----------------|

D :---------------|---------------|---------|----------------|

A :---------------|---------------|---------|----------------|

D :---------------|---------------|---------|----------------|

G :----------------|----------------|----------------|----------------|

D :----------------|----------------|----------------|----------------|

A :----------------|----------------|----------------|----------------|

D :----------------|----------------|----------------|----------------|

G :----------------|----------------|----------------|----------------|

D :----------------|----------------|----------------|----------------|

A :----------------|----------------|----------------|----------------|

D :----------------|----------------|----------------|5-2-2-3-2-2-5-2-|

G :----------------|----------------|----------------|----------------|

D :----------------|----------------|----------------|----------------|

A :----------------|----------------|----------------|7-7-7-7-7-7-7-7-|

D :2-3-2-2-2-2-2-2-|5-2-2-3-2-2-5-2-|2-3-2-2-2-3-2-0-|----------------|

G :------------------|---9-12-9-12---*---|----------------|

D :------------------|13-----------------|----------------|

A :7---8----9-7-9-10-|-------------------|----------------|

D :--9---10----------|-------------------|----------------|

G :----------------|----------------|----------------|----------------|

D :----------------|----------------|----------------|----------------|

A :----------------|----------------|----------------|----------------|

D :5-2-2-3-2-2-5-2-|2-3-2-2-2-2-2-2-|5-2-2-3-2-2-5-2-|2-3-2-2-2-3-2-0-|

G :----------------|----------------|----------------|----------------|

D :----------------|----------------|----------------|----------------|

A :----------------|----------------|----------------|----------------|

D :5-2-2-3-2-2-5-2-|2-3-3-6-6-5-5-3-|3-2-0-2-*---3-2-|0-2-*---2---2---|

G :----------------|----------------|----------------|----------------|

D :----------------|----------------|----------------|----------------|

A :----------------|----------------|----------------|----------------|

D :5-2-2-3-2-2-5-2-|2-3-2-2-2-2-2-2-|5-2-2-3-2-2-5-2-|2-3-2-2-2-3-2-0-|

G :----------------|----------------|----------------|----------------|

D :----------------|----------------|----------------|----------------|

A :----------------|----------------|2---2-3-2-2-0-2-|0-0---0---------|

D :5-2-2-3-2-2-5-2-|2-3-3-6-6-5-5-3-|----------------|----5---5-5-4-5-|

G :------------|------------|------------|------------|------------|

D :------------|------------|------------|------------|------------|

A :------------|------------|------------|------------|------------|

D :5---5-5-5-5-|5-5-5-5-7-3-|5---5-5-5-5-|3---3---3---|5---5-5-5-5-|

G :------------|------------|------------|------------|------------|

D :------------|------------|------------|------------|------------|

A :------------|------------|------------|------------|------------|

D :5-5-5-5-5-5-|3---3-3-3-3-|7---5---3---|7---7-7-7-7-|7-7-7-7-7-5-|

G :------------|------------|------------|------------|------------|

D :------------|------------|------------|------------|------------|

A :------------|------------|------------|------------|----5-3-0---|

D :7---7-7-7-7-|5---5---5---|7---7-7-7-7-|7-7-7-7-7-7-|5---------5-|

G :------------|----------------|----------------|----------------|

D :------------|----------------|----------------|----------------|

A :------------|----------------|----------------|----------------|

D :0-----------|*---------------|----------------|2-2-2---2-2-2---|

G :----------------|----------------|----------------|----------------|

D :----------------|----------------|----------------|----------------|

A :----------------|----------------|----------------|----------------|

D :2-2-2---0-2-4-0-|2-2-2---2-2-2---|2-2-2---0-2-4-0-|7-7-7-7-7-7-7-7-|

G :----------------|----------------|----------------|----------------|

D :----------------|----------------|----------------|----------------|

A :----------------|----------------|----------------|----------------|

D :7-7-7-7-7-7-7-7-|3-3-3-3-3-3-3-3-|5-5-5-5-2-3-5-0-|2-2-2---2-2-2---|

G :----------------|----------------|----------------|----------------|

D :----------------|----------------|----------------|----------------|

A :----------------|----------------|----------------|----------------|

D :2-2-2---0-2-4-0-|2-2-2---2-2-2---|2-2-2---0-2-4-0-|7-7-7-7-7-7-7-7-|

G :----------------|----------------|----------------|------------|

D :----------------|----------------|----------------|------------|

A :----------------|3-3-3-3-3-3-3-3-|5-5-5-5-5-5-3-2-|------------|

D :7-7-7-7-7-7-7-7-|----------------|----------------|5---5-5-5-5-|

G :------------|------------|------------|------------|------------|

D :------------|------------|------------|------------|------------|

A :------------|------------|------------|------------|------------|

D :5-5-5-5-7-3-|5---5-5-5-5-|3---3---3---|5---5-5-5-5-|5-5-5-5-5-5-|

G :------------|------------|------------|------------|------------|

D :------------|------------|------------|------------|------------|

A :------------|------------|------------|------------|------------|

D :3---3-3-3-3-|7---5---3---|7---7-7-7-7-|7-7-7-7-7-5-|7---7-7-7-7-|

G :------------|------------|------------|------------|------------|

D :------------|------------|------------|------------|------------|

A :------------|------------|------------|----5-3-0---|------------|

D :5---5---5---|7---7-7-7-7-|7-7-7-7-7-7-|5---------5-|0-----------|

G :----------------|----------------|----------------|----------------|

D :----------------|----------------|----------------|----------------|

A :----------------|----------------|----------------|----------------|

D :2-2-2---2-2-2---|2-2-2---0-2-4-0-|2-2-2---2-2-2---|2-2-2---0-2-4-0-|

G :----------------|----------------|----------------|----------------|

D :----------------|----------------|----------------|----------------|

A :----------------|----------------|----------------|----------------|

D :7-7-7-7-7-7-7-7-|7-7-7-7-7-7-7-7-|3-3-3-3-3-3-3-3-|5-5-5-5-2-3-5-0-|

G :----------------|----------------|----------------|----------------|

D :----------------|----------------|----------------|----------------|

A :----------------|----------------|----------------|----------------|

D :2-2-2---2-2-2---|2-2-2---0-2-4-0-|2-2-2---2-2-2---|2-2-2---0-2-4-0-|

G :----------------|----------------|----------------|----------------|

D :----------------|----------------|----------------|----------------|

A :----------------|----------------|3-3-3-3-3-3-3-0-|----------0-2---|

D :7-7-7-7-7-7-7-7-|7-7-7-7-7-7-7-7-|----------------|5-5-5-5-5-----5-|

G :----------------|----------------|----------------|----------------|

D :----------------|----------------|----------------|----------------|

A :----------------|----------------|3---3-3-3-3-3-3-|3---3-3-3-3-3-4-|

D :7---7-7-7-7-7-7-|7-7-7-5-3-3-3-3-|----------------|----------------|

G :----------------|----------------|----------------|----------------|

D :----------------|----------------|----------------|----------------|

A :----------------|----------------|0---0-0-0-0-0-0-|0-0-0-0-3-3-2---|

D :0---0-0-0-0-0-0-|0---0-3-3-3-5-5-|----------------|--------------5-|

G :----------------|----------------|----------------|----------------|

D :----------------|----------------|----------------|----------------|

A :----------------|----------------|----------------|----------------|

D :7-7-7-7-7-7-7-7-|7-7-7-7-5-5-5-5-|3---3-3-3-3-3-3-|0-0-0-0-0-0-0-0-|

G :----------------|----------------|----------------|----------------|

D :----------------|----------------|----------------|----------------|

A :----------------|----------------|----------------|----------------|

D :5---5-5-5-5-5-5-|5-5-5-5-5-5-5-5-|2---2-2-2-2-2-2-|3-3-3-3-3-3-3-3-|

G :----------------|----------------|----------------|-------------------|

D :----------------|----------------|----------------|-------------------|

A :----------------|----------------|----------------|-------------------|

D :5-5-5-5-5-5-5-5-|5-5-5-5-5-5-5-5-|5-2-2-3-2-2-5-2-|2-3-2-2-2---2-2-2-2|

G :----------------|-------------------|----------------|----------------|

D :----------------|-------------------|----------------|----------------|

A :----------------|-------------------|----------------|----------------|

D :5-2-2-3-2-2-5-2-|2-3-2-2-3---2-2-2-2|5-2-2-3-2-2-5-2-|2-3-2-2-3---2-2-|

G :-------------------|----------------|----------------|----------------|

D :-------------------|----------------|----------------|----------------|

A :-------------------|----------------|----------------|----------------|

D :5-2-2-3-2-2-2-2-2-2|2---2-0-2-2-0-0-|2-2-2-2-*---2-2-|2-2-*---2-2-2-2-|

G :----------------|----------------|----------------|----------------|

D :----------------|----------------|----------------|----------------|

A :----------------|----------------|----------------|----------------|

D :*---2-2-2-2-*---|----------------|0-0-0-0-*---0-0-|0-0-*---0-0-0-0-|

G :----------------|----------------|----------------|----------------|

D :----------------|----------------|----------------|----------------|

A :----------------|----------------|----------------|------------0-0-|

D :*---0-0-0-0-*---|0---0-0-0-0-1---|----0-0-0-0-*---|0-0-0-0-*-------|

G :----------------|----------------|----------------|----------------|

D :----------------|----------------|----------------|----------------|

A :0-1-0-0-0-1-----|----------------|----------------|----------------|

D :------------3---|0-0-0-0-*---0-0-|0-0-*---0-0-0-0-|*---0-0-0-0-*---|

G :----------------|----------------|----------------|----------------|

D :----------------|----------------|----------------|----------------|

A :----------------|----------------|------------0-0-|0-1-0-0-0-1-----|

D :0---0-0-0-0-1---|----0-0-0-0-*---|0-0-0-0-*-------|------------3---|

G :----------------|----------------|----------------|----------------|

D :----------------|----------------|----------------|----------------|

A :----------------|----------------|----------------|----------------|

D :2-------2-------|2-------2-------|1-------1-------|1-------1-------|

G :----------------|----------------|----------------|----------------|

D :----------------|----------------|----------------|----------------|

A :----------------|----------------|----------------|----------------|

D :2-------2-------|2-------2-------|7-------7-------|9-------9-------|

G :----------------|----------------|----------------|----------------|

D :----------------|----------------|----------------|----------------|

A :----------------|----------------|----------------|----------------|

D :2-------2-------|2-------2-------|1-------1-------|1-------1-------|

G :----------------|----------------|----------------|----------------|

D :----------------|----------------|----------------|----------------|

A :----------------|----------------|----------------|----------------|

D :2---2---2-------|----------------|7---------------|3---------------|

G :----------------|----------------|----------------|----------------|

D :----------------|----------------|----------------|----------------|

A :----------------|----------------|----------------|----------------|

D :0-0-0-0-*---0-0-|0-0-*-----------|0-0-0-0-*---0-0-|0-0-*---0-0-0-0-|

G :----------------|----------------|----------------|----------------|

D :----------------|----------------|----------------|----------------|

A :----------------|----------------|----------------|------------0---|

D :*---0-0-0-0-*---|0---0-0-0-0-1---|----0-0-0-0-*---|0-0-0-0-*-------|

G :----------------|----------------|----------------|----------------|

D :----------------|----------------|----------------|----------------|

A :----1---0-1-----|----------------|----------------|----------------|

D :------------3---|2-2-2-2-*---2-2-|2-2-*---2-2-2-2-|*---2-2-2-2-*---|

G :----------------|----------------|----------------|----------------|

D :----------------|----------------|----------------|----------------|

A :----------------|----------------|------------2---|----3---2-3-----|

D :2---2-2-2-2-3---|----2-2-2-2-*---|2-2-2-2-*-------|------------5---|

G :----------------|----------------|----------------|----------------|

D :----------------|----------------|----------------|----------------|

A :----------------|----------------|----------------|----------------|

D :*---------------|----------------|7---7---7---7---|7---3---3---3---|

G :----------------|----------------|----------------|----------------|

D :----------------|----------------|----------------|----------------|

A :3---3-3-3-3-3-3-|3-3-3-3-3-3-3-3-|----------------|----------------|

D :----------------|----------------|0---0-0-0-0-0-0-|0-0-0-0-0-0-0-0-|

G :----------------|----------------|----------------|----------------|

D :----------------|----------------|----------------|----------------|

A :----------------|----------------|----------------|----------------|

D :7---7-7-7-7-7-7-|7-7-7-7-7-7-7-7-|7---7-7-7-7-7-7-|7-7-7-7-5-5-5-5-|

G :----------------|----------------|----------------|----------------|

D :----------------|----------------|----------------|----------------|

A :----------------|----------------|----------------|----------------|

D :3---3-3-3-3-3-3-|0-0-0-0-0-0-0-0-|5---5-5-5-5-5-5-|5-5-5-5-5-5-5-5-|

G :----------------|----------------|----------------|----------------|

D :----------------|----------------|----------------|----------------|

A :----------------|------------0---|----------------|----------------|

D :2---2-2-2-2-2-2-|3---3-3-3-3---3-|5-5-5-5-5-5-5-5-|5-5-5-5-5-5-5-5-|

G :----------------|----------------|----------------|----------------|

D :----------------|----------------|----------------|----------------|

A :2-2-2-2-2-2-2-2-|2-2-2-2-0-0-0-0-|5-5-5-5-5-5-5-5-|5-5-5-5-5-5-5-5-|

D :----------------|----------------|----------------|----------------|

G :----------------|----------------|----------------|----------------|

D :----------------|----------------|----------------|----------------|

A :----------------|----------------|2-2-2-2-2-2-2-2-|5-5-5-4-5-4-2-0-|

D :2-2-2-2-2-2-2-2-|2-2-2-2-5-5-7-7-|----------------|----------------|

G :----------------|----------------|----------------|----------------|

D :----------------|----------------|----------------|----------------|

A :2-2-2-2-2-2-2-2-|2-2-2-2-0-0-0-0-|----------------|----------------|

D :----------------|----------------|5-5-5-5-5-5-5-5-|2-2-2-2-2-2-2-2-|

G :----------------|----------------|----------------|----------------|

D :----------------|----------------|----------------|----------------|

A :0-0-0-0-0-0-0-0-|0-0-0-0-0-0-0-0-|----------------|----------------|

D :----------------|----------------|5-5-5-5-5-5-5-5-|5-5-5-5-5-5-5-5-|

G :----------------|----------------|----------------|----------------|

D :----------------|----------------|----------------|----------------|

A :0-0-0-0-0-0-0-0-|0-0-0-0-0-0-0-0-|2-2-*-------2-2-|------------*---|

D :----------------|----------------|----------------|----------------|

Get this song at:  amazon.com sheetmusicplus.com

Share your thoughts

0 Comments found