Nightwish

Nightwish - Crownless guitar tab

tabbed by daniel geers,

from germany / westerkappeln

Explanation:

When i searched for a guitar tab of crownless i found 4 or 5 different versions

on the net.. most of them very hard to play, so i made my own tab - a logical,

finger - friendly version

This is only the main part because i was too lazy to write down the following

chars / tones... the rest is very easy...it doesn't matter which "version"

you play ...

Guitar friendly version of the intro :

( "/ " means slide )

|--------------------------------|-----------------------------------|

|--------------------------------|-----------------------------------|

|--------------------------------|-----------------------------------|

|-----------------7--------------|--12-7---7-11-7---7-9-7---7--9-7-6-|

|--7-9-9-9--9-9-9---9-9-9--9-9-9-|-------9--------9-------9----------|

|--------------------------------|-----------------------------------|

|------------------------------|---------------------------|

|------------------------------|---------------------------|

|------------------------------|---------------------------|

|-------------------7----6-----|-----------------7----6----|

|--4/5-5-5--5-5-5---5----5-----|--4/5-5-5--5-5-5---5----5--|

|------------------------------|---------------------------|

after 4 times:

|---------------------------------|------------------------------------|

|---------------------------------|------------------------------------|

|---------------------------------|------------------------------------|

|-------------4---6---7---6---4---|--6---4-------4---3-4-3-0-----------|

|--4--5-4-8-4---4---4---4---4---4-|----4---4-8-4---4---------4-2-0---4-|

|---------------------------------|--------------------------------4-2-|

and now start again from the beginning

Get this song at:  amazon.com sheetmusicplus.com

Share your thoughts

0 Comments found