Nightwish

Nightwish - Crownless bass tab

G||------------------|------------------|------------------|------------------|

D||------------------|------------------|------------------|------------------|

A||------------------|------------------|------------------|------------------|

E||------------------|------------------|------------------|------------------|

-------------------|------------------|-------------------|------------------|

-------------------|------------------|--0----------------|------------------|

-------------------|------------------|-------------------|------------------|

--2----------------|------------------|-------------------|------------------|

----------------------------------|----------------------------------|

----------------------------------|----------------------------------|

----------------------------------|----------------------------------|

--2-2-2-2-2-2-2-2-2-2-2-2-2-2-2-2-|--2-2-2-2-2-2-2-2-2-2-2-2-2-2-2-2-|

----------------------------------|----------------------------------|

--0-0-0-0-0-0-0-0-0-0-0-0-0-0-0-0-|--0-0-0-0-0-0-0-0-0-0-0-0-0-0-0-0-|

----------------------------------|----------------------------------|

----------------------------------|----------------------------------|

----------------------------------|----------------------------------|

----------------------------------|----------------------------------|

----------------------------------|----------------------------------|

--2-2-2-2-2-2-2-2-2-2-2-2-2-2-2-2-|--2-2-2-2-2-2-2-2-2-2-2-2-2-2-2-2-|

----------------------------------|----------------------------------|

--0-0-0-0-0-0-0-0-0-0-0-0-0-0-0-0-|--0-0-0-0-0-0-0-0-0-0-0-0-0-0-0-0-|

----------------------------------|----------------------------------|

----------------------------------|----------------------------------|

----------------------------------|----------------------------------|

----------------------------------|----------------------------------|

--4-4-4-4-4-4-4-4-4-4-4-4-4-4-4-4-|--4-4-4-4-4-4-4-4-4-5-4-2-4-2-0---|

----------------------------------|--------------------------------4-|

--------------------------|--------------------------|

--------------------------|--------------------------|

--------------------------|--------------------------|

--2--2--2--2--2--2--2--2--|--0--0--0--0--2--2--2--2--|

--------------------------|--------------------------|

--------------------------|--------------------------|

--0--0--0--2--4--4--4--4--|--5--5--4--2--------------|

--------------------------|--------------5--5--4--4--|

--------------------------|--------------------------|

--------------------------|--------------------------|

--------------------------|--------------------------|

--2--2--2--2--2--2--2--2--|--0--0--0--0--2--2--2--2--|

--------------------------|--------------------------|

--------------------------|--------------------------|

--0--0--0--2--4--4--4--4--|--5--5--4--2--------------|

--------------------------|--------------5--5--4--4--|

----------------------------------|----------------------------------|

----------------------------------|----------------------------------|

----------------------------------|----------------------------------|

--2-2-2-2-2-2-2-2-2-2-2-2-2-2-2-2-|--2-2-2-2-2-2-2-2-2-2-2-2-2-2-2-2-|

----------------------------------|----------------------------------|

--0-0-0-0-0-0-0-0-0-0-0-0-0-0-0-0-|--0-0-0-0-0-0-0-0-0-0-0-0-0-0-0-0-|

----------------------------------|----------------------------------|

----------------------------------|----------------------------------|

----------------------------------|----------------------------------|

----------------------------------|----------------------------------|

----------------------------------|----------------------------------|

--2-2-2-2-2-2-2-2-2-2-2-2-2-2-2-2-|--2-2-2-2-2-2-2-2-2-2-2-2-2-2-2-2-|

----------------------------------|----------------------------------|

--0-0-0-0-0-0-0-0-0-0-0-0-0-0-0-0-|--0-0-0-0-0-0-0-0-0-0-0-0-0-0-0-0-|

----------------------------------|----------------------------------|

----------------------------------|----------------------------------|

----------------------------------|----------------------------------|

----------------------------------|----------------------------------|

--4-4-4-4-4-4-4-4-4-4-4-4-4-4-4-4-|--4-4-4-4-4-4-4-4-4-5-4-2-4-2-0---|

----------------------------------|--------------------------------4-|

--------------------------|--------------------------|

--------------------------|--------------------------|

--------------------------|--------------------------|

--2--2--2--2--2--2--2--2--|--0--0--0--0--2--2--2--2--|

--------------------------|--------------------------|

--------------------------|--------------------------|

--0--0--0--2--4--4--4--4--|--5--5--4--2--------------|

--------------------------|--------------5--5--4--4--|

--------------------------|--------------------------|

--------------------------|--------------------------|

--------------------------|--------------------------|

--2--2--2--2--2--2--2--2--|--0--0--0--0--2--2--2--2--|

--------------------------|--------------------------|

--------------------------|--------------------------|

--0--0--0--2--4--4--4--4--|--5--5--4--2--------------|

--------------------------|--------------5--5--4--4--|

----------------------------------|----------------------------------|

--0-0-0-0-0-0-0-0-0-0-0-0-0-0-0-0-|--2-2-2-2-2-2-2-2-2-2-2-2-0-0-0-0-|

----------------------------------|----------------------------------|

----------------------------------|----------------------------------|

----------------------------------|----------------------------------|

----------------------------------|--------------------------4-2-----|

--4-4-4-4-4-4-4-4-4-4-4-4-4-4-4-4-|------------------------------2-0-|

----------------------------------|--2-2-2-2-2-2-2-2-2-2-2-2---------|

----------------------------------|----------------------------------|

--0-0-0-0-0-0-0-0-0-0-0-0-0-0-0-0-|----------------------------------|

----------------------------------|--0-0-0-0-0-0-0-0-0-0-0-0-0-0-0-0-|

----------------------------------|----------------------------------|

----------------------------------|----------------------------------|

--2-2-2-2-2-2-2-2-2-2-2-2-2-2-2-2-|--2-2-2-2-2-2-2-2-2-2-2-2-2-2-2-2-|

----------------------------------|----------------------------------|

----------------------------------|----------------------------------|

----------------------------------|----------------------------------|

--0-0-0-0-0-0-0-0-0-0-0-0-0-0-0-0-|--2-2-2-2-2-2-2-2-2-2-2-2-0-0-0-0-|

----------------------------------|----------------------------------|

----------------------------------|----------------------------------|

----------------------------------|----------------------------------|

----------------------------------|--------------------------4-2-----|

--4-4-4-4-4-4-4-4-4-4-4-4-4-4-4-4-|------------------------------2-0-|

----------------------------------|--2-2-2-2-2-2-2-2-2-2-2-2---------|

----------------------------------|----------------------------------|

--0-0-0-0-0-0-0-0-0-0-0-0-0-0-0-0-|----------------------------------|

----------------------------------|--0-0-0-0-0-0-0-0-0-0-0-0-0-0-0-0-|

----------------------------------|----------------------------------|

----------------------------------|----------------------------------|

----------------------------------|----------------------------------|

--4-4-4-4-4-4-4-4-4-4-4-4-4-4-4-4-|--4-4-4-4-4-4-4-4-4-5-4-2-4-2-0---|

----------------------------------|--------------------------------4-|

----------------------------------|----------------------------------|

----------------------------------|----------------------------------|

----------------------------------|------------------0-0-0-0-2-2-4-4-|

--2-2-2-2-2-2-2-2-2-2-2-2-2-2-2-2-|--2-2-2-2-4-4-4-4-----------------|

----------------------------------|----------------------------------|

----------------------------------|----------------------------------|

----------------------------------|------------------0-0-0-0-2-2-4-4-|

--2-2-2-2-2-2-2-2-2-2-2-2-2-2-2-2-|--2-2-2-2-4-4-4-4-----------------|

----------------------------------|----------------------------------|

----------------------------------|------------------0-0-0-0-0-0-----|

--2-2-2-2-2-2-2-2-2-2-2-2-2-2-2-2-|--2-2-2-2-2-2-2-2-------------0-0-|

----------------------------------|----------------------------------|

----------------------------------|----------------------------------|

----------------------------------|------------------0-0-0-0-0-0-----|

--2-2-2-2-2-2-2-2-2-2-2-2-2-2-2-2-|--2-2-2-2-2-2-2-2-------------0-0-|

----------------------------------|----------------------------------|

----------------------------------|----------------------------------|

----------------------------------|------------------0-0-0-0-0-0-----|

--2-2-2-2-2-2-2-2-2-2-2-2-2-2-2-2-|--2-2-2-2-2-2-2-2-------------0-0-|

----------------------------------|----------------------------------|

----------------------------------|----------------------------------|

----------------------------------|------------------0-0-0-0-0-0-----|

--2-2-2-2-2-2-2-2-2-2-2-2-2-2-2-2-|--2-2-2-2-2-2-2-2-------------0-0-|

----------------------------------|----------------------------------|

------------------|------------------|----------------------------------|

------------------|------------------|----------------------------------|

------------------|------------------|----------------------------------|

------------------|------------------|--2-2-2-2-2-2-2-2-2-2-2-2-2-2-2-2-|

----------------------------------|----------------------------------|

----------------------------------|----------------------------------|

----------------------0-0-0-0-2-2-|----------------------------------|

--2-2-2-2-2-2-2-2-2-2-------------|--2-2-2-2-2-2-2-2-2-2-2-2-2-2-2-2-|

----------------------------------|----------------------------------|

----------------------------------|----------------------------------|

----------------------------------|----------------------------------|

--2-2-2-2-2-2-2-2-0-0-0-0-0-0-0-0-|--2-2-2-2-2-2-2-2-2-2-2-2-2-2-2-2-|

----------------------------------|----------------------------------|

----------------------------------|----------------------------------|

----------------------0-0-0-0-2-2-|----------------------------------|

--2-2-2-2-2-2-2-2-2-2-------------|--2-2-2-2-2-2-2-2-2-2-2-2-2-2-2-2-|

----------------------------------|----------------------------------|

----------------------------------|----------------------------------|

----------------------------------|--2-2-2-2-2-2-2-2-2-2-2-2-2-2-2-2-|

--0-0-0-0-0-0-0-0-0-0-0-0-0-0-0-0-|----------------------------------|

----------------------------------|----------------------------------|

----------------------0-0-0-0-2-2-|----------------------------------|

--2-2-2-2-2-2-2-2-2-2-------------|--2-2-2-2-2-2-2-2-2-2-2-2-2-2-2-2-|

----------------------------------|----------------------------------|

----------------------------------|----------------------------------|

----------------------0-0-0-0-2-2-|----------------------------------|

--2-2-2-2-2-2-2-2-2-2-------------|--2-2-2-2-2-2-2-2-2-2-2-2-2-2-2-2-|

----------------------------------|----------------------------------|

----------------------------------|----------------------------------|

----------------------0-0-0-0-2-2-|----------------------------------|

--2-2-2-2-2-2-2-2-2-2-------------|--2-2-2-2-2-2-2-2-2-2-2-2-2-2-2-2-|

----------------------------------|----------------------------------|

----------------------------------|----------------------------------|

----------------------------------|----------------------------------|

--2-2-2-2-2-2-2-2-2-2-2-2-2-2-2-2-|----------------------------------|

----------------------------------|--2-2-2-2-2-2-2-2-2-2-2-2-2-2-2-2-|

----------------------------------|----------------------------------|

----------------------------------|----------------------------------|

------------------0-0-0-0-2-2-2-2-|----------------------------------|

--2-2-2-2-4-4-4-4-----------------|--2-2-2-2-2-2-2-2-2-2-2-2-2-2-2-2-|

----------------------------------|----------------------------------|

----------2-2-2-2-0-0-0-0---------|----------------------------------|

--------------------------4-4-4-4-|----------------------------------|

--2-2-2-2-------------------------|--2-2-2-2-2-2-2-2-2-2-2-2-2-2-2-2-|

----------------------------------|----------------------------------|

----------------------------------|----------------------------------|

------------------0-0-0-0-2-2-2-2-|----------------------------------|

--2-2-2-2-4-4-4-4-----------------|--2-2-2-2-2-2-2-2-2-2-2-2-2-2-2-2-|

------------------|--------------------------|--------------------------|

------------------|--0--0--0--0--0--0--0--0--|--------------------------|

------------------|--------------------------|--4--4--4--4--4--4--4--4--|

--2-2-2-2-0-0-0-0-|--------------------------|--------------------------|

--------------------------|--------------------------|

--------------------------|--------------------------|

--------------------------|--------------------------|

--2--2--2--2--2--2--2--2--|--2--2--2--2--2--2--2--2--|

--------------------------|--------------------------|

--------------------------|--------------------------|

--0--0--0--0--0--0--0--0--|--------------------------|

--------------------------|--0--0--0--0--0--0--0--0--|

--------------------------|------------------|------------------|

--------------------------|------------------|------------------|

--------------------------|------------------|------------------|

--0--0--0--0--0--0--0--0--|------------------|------------------|

------------------|------------------|-------------------|------------------|

------------------|------------------|-------------------|------------------|

------------------|------------------|-------------------|------------------|

------------------|------------------|--2----------------|------------------|

-------------------|------------------|----------------------------------|

--0----------------|------------------|----------------------------------|

-------------------|------------------|--4-4-4-4-4-4-4-4-4-4-4-4-4-4-4-4-|

-------------------|------------------|----------------------------------|

----------------------------------|--------------------------|

----------------------------------|--------------------------|

--4-4-4-4-4-4-4-4-4-5-4-2-4-2-0---|--------------------------|

--------------------------------4-|--2--2--2--2--2--2--2--2--|

--------------------------|--------------------------|

--------------------------|--------------------------|

--------------------------|--0--0--0--2--4--4--4--4--|

--0--0--0--0--2--2--2--2--|--------------------------|

--------------------------|--------------------------|

--------------------------|--------------------------|

--5--5--4--2--------------|--------------------------|

--------------5--5--4--4--|--2--2--2--2--2--2--2--2--|

--------------------------|--------------------------|

--------------------------|--------------------------|

--------------------------|--0--0--0--2--4--4--4--4--|

--0--0--0--0--2--2--2--2--|--------------------------|

--------------------------|----------------------------------|

--------------------------|--0-0-0-0-0-0-0-0-0-0-0-0-0-0-0-0-|

--5--5--4--2--------------|----------------------------------|

--------------5--5--4--4--|----------------------------------|

----------------------------------|----------------------------------|

--2-2-2-2-2-2-2-2-2-2-2-2-0-0-0-0-|----------------------------------|

----------------------------------|--4-4-4-4-4-4-4-4-4-4-4-4-4-4-4-4-|

----------------------------------|----------------------------------|

----------------------------------|----------------------------------|

--------------------------4-2-----|--0-0-0-0-0-0-0-0-0-0-0-0-0-0-0-0-|

------------------------------2-0-|----------------------------------|

--2-2-2-2-2-2-2-2-2-2-2-2---------|----------------------------------|

----------------------------------|----------------------------------|

----------------------------------|--2-2-2-2-2-2-2-2-2-2-2-2-2-2-2-2-|

--0-0-0-0-0-0-0-0-0-0-0-0-0-0-0-0-|----------------------------------|

----------------------------------|----------------------------------|

----------------------------------|----------------------------------|

--2-2-2-2-2-2-2-2-2-2-2-2-2-2-2-2-|--0-0-0-0-0-0-0-0-0-0-0-0-0-0-0-0-|

----------------------------------|----------------------------------|

----------------------------------|----------------------------------|

----------------------------------|----------------------------------|

--2-2-2-2-2-2-2-2-2-2-2-2-0-0-0-0-|----------------------------------|

----------------------------------|--4-4-4-4-4-4-4-4-4-4-4-4-4-4-4-4-|

----------------------------------|----------------------------------|

----------------------------------|----------------------------------|

--------------------------4-2-----|--0-0-0-0-0-0-0-0-0-0-0-0-0-0-0-0-|

------------------------------2-0-|----------------------------------|

--2-2-2-2-2-2-2-2-2-2-2-2---------|----------------------------------|

----------------------------------|----------------------------------|

----------------------------------|----------------------------------|

--0-0-0-0-0-0-0-0-0-0-0-0-0-0-0-0-|--4-4-4-4-4-4-4-4-4-4-4-4-4-4-4-4-|

----------------------------------|----------------------------------|

----------------------------------|----------------------------------|

----------------------------------|--0-0-0-0-0-0-0-0-0-0-0-0-0-0-0-0-|

--4-4-4-4-4-4-4-4-4-5-4-2-4-2-0---|----------------------------------|

--------------------------------4-|----------------------------------|

----------------------------------|----------------------------------|

--2-2-2-2-2-2-2-2-2-2-2-2-0-0-0-0-|----------------------------------|

----------------------------------|--4-4-4-4-4-4-4-4-4-4-4-4-4-4-4-4-|

----------------------------------|----------------------------------|

----------------------------------|----------------------------------|

--------------------------4-2-----|--0-0-0-0-0-0-0-0-0-0-0-0-0-0-0-0-|

------------------------------2-0-|----------------------------------|

--2-2-2-2-2-2-2-2-2-2-2-2---------|----------------------------------|

----------------------------------|----------------------------------|

----------------------------------|--2-2-2-2-2-2-2-2-2-2-2-2-2-2-2-2-|

--0-0-0-0-0-0-0-0-0-0-0-0-0-0-0-0-|----------------------------------|

----------------------------------|----------------------------------|

----------------------------------|----------------------------------|

--2-2-2-2-2-2-2-2-2-2-2-2-2-2-2-2-|--0-0-0-0-0-0-0-0-0-0-0-0-0-0-0-0-|

----------------------------------|----------------------------------|

----------------------------------|----------------------------------|

----------------------------------|----------------------------------|

--2-2-2-2-2-2-2-2-2-2-2-2-0-0-0-0-|----------------------------------|

----------------------------------|--4-4-4-4-4-4-4-4-4-4-4-4-4-4-4-4-|

----------------------------------|----------------------------------|

----------------------|----------------------|----------------------|

----------------------|--0----0----0----0----|----------------------|

----------------------|----------------------|--0----0----0----0----|

--2----2----2----0----|----------------------|----------------------|

----------------------|----------------------|-------------------|

----------------------|----------------------|-------------------|

--4----4----4----4----|--4----4----4----4----|-------------------|

----------------------|----------------------|--2----------------|

------------------|-------------------|----||

------------------|-------------------|----||

------------------|-------------------|----||

------------------|--2----------------|----||

Taken from The BassMasta -- http://www.tabs-database.com

Get this song at:  amazon.com sheetmusicplus.com

Share your thoughts

0 Comments found