Nightwish

Nightwish - Crimson Tide guitar tab

INTRO

Riff (0:13)

Keyboard - Strings

e:---|----3-2-3--3-3-5--5-5-3--2----3-2-3--3-3-8--8-8-7--5-----|

B:---|----0----------1------3-------0----------5------3--------|

G:---|*-------------------------------------------------------*|

D:-2-|*-2-----------------------------------------------------*|

A:---|---------------------------------------------------------|

E:-0-|--0------------------------------------------------------|

e:----3-2-3--3-3-5--5-5-3--2----3-2-3--3-3-8--8-8-7--5-----|

B:----0----------1------3-------0----------5------3--------|

G:*-------------------------------------------------------*|

D:*-2-----------------------------------------------------*|

A:---------------------------------------------------------|

E:--0------------------------------------------------------|

|Guitar |

e:---------------------------------------------------------|

B:--------------------------------2nd-time-only------------|

G:*-------------------------------------------------------*|

D:*-2-----------------------------x----------------------*|

A:--2------------------------------------------------------|

E:--0------------------------------------------------------|

e:----6-5-6--6-6-8--8-8-6--5----6-5-6--6-6-11--11-11-10--8----|

B:----3----------4------6-------3-----------8---------6-------|

G:*----------------------------------------------------------*|

D:*----------------------------------------------------------*|

A:------------------------------------------------------------|

E:------------------------------------------------------------|

|Guitar |

e:------------------------------------------------------------|

B:------------------------------------------------------------|

G:*----------------------------------------------------------*|

D:*-5--5-5-5--5-5-5--5-5-5--3--5--5-5-5--5-5-10--10-10-8--7*-*|

A:--5--5-5-5--5-5-5--5-5-5--3--5--5-5-5--5-5-10--10-10-8------|

E:--3--3-3-3--3-3-3--3-3-3--1--3--3-3-3--3-3--8---8--8-6------|

. . . . . . . . . . . .

e:---10-9-10--10-10-12--12-12-10--9----10-9-10--10-10-15--15-15-14--12---|

B:----7--------------8--------10--------7-------------12--------10-------|

G:*---------------------------------------------------------------------*|

D:*---------------------------------------------------------------------*|

A:-----------------------------------------------------------------------|

E:-----------------------------------------------------------------------|

|Guitar |

e:--------------------------------------------1st----------|-2nd--------|

B:---------------------------------------------------------|------------|

G:*-------------------------------------------------------*|--------9---|

D:*-9--9-9-9--9-9-9--9-9-9--7--9--9-9-9--9-9--------------*|----7/9-----|

A:--9--9-9-9--9-9-9--9-9-9--7--9--9-9-9--9-9--10*---9*-7*--|--7---------|

E:--7--7-7-7--7-7-7--7-7-7--5--7--7-7-7--7-7------7--------|------------|

. . . . . . . . . . .

GUITAR SOLO

Keyboard plays

chords under solo

(0:57)

Em C G D

e:------------------------------------------------------------------|

B:-----------------------------10-9b10~-----------------------------|

G:-9~-12-11-12119~-----12-12--------------------------------------|

D:--------------------12--------------------------------------------|

A:------------------------------------------------------------------|

E:------------------------------------------------------------------|

Em C G D

e:------------------------------------------------------------------|

B:-----------------------------10p12-12-10-------------------10-12--|

G:-9--12-11-12-11h12p11-9~---------------------------9-11-12--------|

D:--------------------------12-----------------10-12----------------|

A:------------------------------------------------------------------|

E:------------------------------------------------------------------|

Am F C G Am F C G

e:----------------------------10-10~-----------------------------12-12--10--|

B:-10-13-12-1312-10~-----13-----------10--13-12-1312-10~----------------|

G:----------------------12------------------------------------12----------9-|

D:-----------------------------------------------------------------------12-|

A:--------------------------------------------------------------------------|

E:--------------------------------------------------------------------------|

(1:20)

Em C G D Em C

e:-----------------------------------------------12------------------------|

B:-----------------------------10-10-10*-10-10*-----------------------------|

G:-9--12-11-12119~-----12-12----------------------12-11-12-12-11h12p11-9~-|

D:--------------------12----------------------------------------------------|

A:--------------------------------------------------------------------------|

E:--------------------------------------------------------------------------|

G D

e:--------------------------------------------------------------------------|

B:----9h10h12-12-10-----------------10-12-----------------------------------|

G:--------------------------9-11-12-----------------------------------------|

D:-12-----------------10-12-------------------------------------------------|

A:--------------------------------------------------------------------------|

E:--------------------------------------------------------------------------|

Am F C G Am F C G

e:------------------------------10-10-10*-10-10*-12----------10h12-12--10--|

B:-10-13-12-131210~----13-13----------------------13-12-131210~--------|

G:---------------------12--------------------------------------------12-----|

D:--------------------------------------------------------------------------|

A:--------------------------------------------------------------------------|

E:--------------------------------------------------------------------------|

(1:44)

Em C G D

e:--------------------------------------------------------------------------|

B:-------------------------------------------10-10~-------------------------|

G:-6/7/8/9-9--12-11-12-11h12p11-9~-----12-12--------------------------------|

D:----------------------------------12--------------------------------------|

A:--------------------------------------------------------------------------|

E:--------------------------------------------------------------------------|

Em C G D

e:--------------------------------------------------------------------------|

B:-----------------------10h12~-10-----------------10-12--------------------|

G:-9--12-11-12119------------------------9-11-12--------------------------|

D:--------------------12-------------10-12----------------------------------|

A:--------------------------------------------------------------------------|

E:--------------------------------------------------------------------------|

Am F C G Am F C G

e:-----------------------------10-8h10p8h10p...--------------12-12-10*-10--|

B:-10-13-12-131210~----13-13-----------------10-13-12-131210~---------|

G:---------------------12-------------------------------------------12------|

D:--------------------------------------------------------------------------|

A:--------------------------------------------------------------------------|

E:--------------------------------------------------------------------------|

(2:06)

Em C G D Em C G D

e:--------------------------------------------------------------------------|

B:-----------------------------10-9b10~------------------------(10)/12-10---|

G:-9--12-11-(11)/12--9-9----12--------------9--12-11-(11)/12---9-9----12----|

D:-----------------------12----------------------------------------12-------|

A:--------------------------------------------------------------------------|

E:--------------------------------------------------------------------------|

e:--------------------------------------------------------------------------|

B:--------------------------------------------------------------------------|

G:-------5-5---------7-7-7-7-7-7--------5-5-xxxx--------2----2--------------|

D:-2-2---5-5---5-5---7-7-7-7-7-7--2-2---5-5-xxxx-5-5----2----2--------------|

A:-2-2---3-3---5-5---5-5-5-5-5-5--2-2---3-3-xxxx-5-5----0----0--------------|

E:-0-0---------3-3----------------0-0------------3-3------------------------|

Am F C G Am F C G

e:--------------------------------10-10~~---------------------(10)/12-10----|

B:-10--13-12-(10)/13--10-10----13---------10--13-12-(10)/13--10-10----13----|

G:--------------------------12-------------------------------------12-------|

D:--------------------------------------------------------------------------|

A:--------------------------------------------------------------------------|

E:--------------------------------------------------------------------------|

e:--------------------------------------------------------------------------|

B:--------------------------------------------------------------------------|

G:-2-2---------5-5----------------2-2---------5-5---------------------------|

D:-2-2---3-3---5-5---5-5-5-5-5-5--2-2---3-3---5-5----75--------------------|

A:-0-0---3-3---3-3---5-5-5-5-5-5--0-0---3-3---3-3----75--------------------|

E:-------1-1---------3-3-3-3-3-3--------1-1----------53--------------------|

G5 F#5 F5 E5 D#5 D5

e:--------------------|

B:--------------------|

G:--------------------|

D:-12-11-10--9--8--7~-|

A:-10--9--8--7--6--5~-|

E:--------------------|

(2:29)

e:--3-2-3--3-3-5--5-5-3--2----3-2-3--3-3-8--8-8-7--5-----|

B:--0----------1------3-------0----------5------3--------|

G:*-----------------------------------------------------*|

D:*-----------------------------------------------------*|

A:-------------------------------------------------------|

E:-------------------------------------------------------|

|Guitar |

e:-1st-time----------------------------------------------|

B:-------------------------------------------------------|

G:-------------------------------------------------------|

D:--2--2-2-2--2-2-2--2-2-2--0--2--2-2-2--2-2-7--7-7-5-4*-|

A:--2--2-2-2--2-2-2--2-2-2--0--2--2-2-2--2-2-7--7-7-5----|

E:--0--0-0-0--0-0-0--0-0-0-----0--0-0-0--0-0-5--5-5-3----|

| . . . . . . . . . . . . |

|Guitar |

e:-2nd-time----------------------------------------------|

B:-------------------------------------------------------|

G:-------------------------------------------------------|

D:--2~--wammy--------------------------------------------|

A:--2~---------------------------------------------------|

E:--0~---------------------------------------------------|

e:--6-5-6--6-6-8--8-8-6--5----6-5-6--6-6-11--11-11-10--8-|

B:--3----------4------6-------3-----------8---------6----|

G:*-----------------------------------------------------*|

D:*-----------------------------------------------------*|

A:-------------------------------------------------------|

E:-------------------------------------------------------|

|Guitar |

e:--------------------------------------------1st--------2nd--------|

B:--------------------------------------------------------note-x-3--|

G:*----------------------------------------------------*------------|

D:*-5--5-5-5--5-5-5--5-5-5--3--5--5-5-5--5-5-10*-8*-7*-*-10-10-8-7--|

A:--5--5-5-5--5-5-5--5-5-5--3--5--5-5-5--5-5------------------------|

E:--3--3-3-3--3-3-3--3-3-3--1--3--3-3-3--3-3------------------------|

. . . . . . . . . .

e:-10-9-10--10-10-12--12-12-10--9----10-9-10--10-10-15--15-15-14--12--|

B:--7--------------8--------10--------7-------------12--------10------|

G:--------------------------------------------------------------------|

D:--------------------------------------------------------------------|

A:--------------------------------------------------------------------|

E:--------------------------------------------------------------------|

|Guitar |

e:--------------------------------------------------------------------|

B:--------------------------------------------------------------------|

G:*-------------------------------------------------------------------|

D:*-9--9-9-9--9-9-9--9-9-9--7--9--9-9-9--9-9--------------------------|

A:--9--9-9-9--9-9-9--9-9-9--7--9--9-9-9--9-9----7*----7*-5*-4*--------|

E:--7--7-7-7--7-7-7--7-7-7--5--7--7-7-7--7-7--------------------------|

. . . . . . . . . .

e:-10-9-10--10-10-12--12-12-10--9----10-9-10--10-10-15--15-15-14--12--|---|

B:--7--------------8--------10--------7-------------12--------10------|---|

G:--------------------------------------------------------------------|---|

D:--------------------------------------------------------------------|---|

A:--------------------------------------------------------------------|---|

E:--------------------------------------------------------------------|---|

|Guitar rit...............| |

e:--------------------------------------------------------------------|---|

B:--------------------------------------------------------------------|---|

G:*-------------------------------------------------------------------|---|

D:*-9--9-9-9--9-9-9--9-9-9--7--9--9-9-9--9-9--------------------------|-9-|

A:--9--9-9-9--9-9-9--9-9-9--7--9--9-9-9--9-9----7*----7*-5*-4*--------|-9-|

E:--7--7-7-7--7-7-7--7-7-7--5--7--7-7-7--7-7--------------------------|-7-|

. . . . . . . . . .

Get this song at:  amazon.com sheetmusicplus.com

Share your thoughts

0 Comments found