Nightwish

Nightwish - Crimson Tide Deep Blue Sea bass tab

G||------------------|------------------|------------------|------------------|

D||------------------|------------------|------------------|------------------|

A||------------------|------------------|------------------|------------------|

E||------------------|------------------|------------------|------------------|

-------------------|------------------|-------------------|------------------|

-------------------|------------------|-------------------|------------------|

-------------------|------------------|-------------------|------------------|

--0----------------|------------------|--0----------------|------------------|

-------------------|------------------|-------------------|------------------|

-------------------|------------------|-------------------|------------------|

-------------------|------------------|-------------------|------------------|

--0----------------|------------------|--0----------------|------------------|

------------------------|-----------------------|------------------------|

------------------------|-----------------------|------------------------|

------------------------|-----------------------|------------------------|

--3----3--3--3----3--3--|--3----3--3--3----1----|--3----3--3--3----3--3--|

-----------------------|------------------------|-----------------------|

------------------3----|------------------------|-----------------------|

--3----3--3--1---------|------------------------|-----------------------|

-----------------------|--3----3--3--3----3--3--|--3----3--3--3----1----|

------------------------|-----------------------|------------------------|

------------------------|------------------3----|------------------------|

------------------------|--3----3--3--1---------|--2----2--2--2----2--2--|

--3----3--3--3----3--3--|-----------------------|------------------------|

-----------------------|------------------------|------------------2----|

-----------------------|------------------------|-------------0---------|

--2----2--2--2----0----|--2----2--2--2----2--2--|--0----0--0------------|

-----------------------|------------------------|-----------------------|

------------------------|-----------------------|------------------------|

------------------------|-----------------------|------------------------|

--2----2--2--2----2--2--|--2----2--2--2----0----|--2----2--2--2----2--2--|

------------------------|-----------------------|------------------------|

------------------2----|----------------------|----------------------|

-------------0---------|----------------------|----------------------|

--0----0--0------------|----------------------|--3----3----3----3----|

-----------------------|--0----0----0----0----|----------------------|

----------------------|----------------------|----------------------|

----------------------|----------------------|----------------------|

----------------------|--5----5----5----5----|----------------------|

--3----3----3----3----|----------------------|--0----0----0----0----|

----------------------|----------------------|----------------------|

----------------------|----------------------|----------------------|

--3----3----3----3----|----------------------|--5----5----5----5----|

----------------------|--3----3----3----3----|----------------------|

----------------------|----------------------|----------------------|

----------------------|----------------------|----------------------|

--0----0----0----0----|--3----3----3----3----|----------------------|

----------------------|----------------------|--3----3----3----3----|

----------------------|----------------------|----------------------|

----------------------|----------------------|----------------------|

--5----5----5----5----|--0----0----0----0----|--3----3----3----3----|

----------------------|----------------------|----------------------|

----------------------|----------------------|--------------------|

----------------------|----------------------|--------------------|

----------------------|--5----5----5----5----|--------------------|

--3----3----3----3----|----------------------|--0--0--------------|

--------------------|--------------------|------------------------|

--------------------|--------------------|------------------------|

--3--3--------------|--------------------|--5---5---5---5---5--5--|

--------------------|--3--3--------------|------------------------|

--------------------|--------------------|--------------------|

--------------------|--------------------|--------------------|

--------------------|--3--3--------------|--------------------|

--0--0--------------|--------------------|--3--3--------------|

------------------------|--------------------|--------------------|

------------------------|--------------------|--------------------|

--5---5---5---5---5--5--|--0--0--------------|--3--3--------------|

------------------------|--------------------|--------------------|

--------------------|------------------------|--------------------|

--------------------|------------------------|--------------------|

--------------------|--5---5---5---5---5--5--|--0--0--------------|

--3--3--------------|------------------------|--------------------|

--------------------|--------------------|------------------------|

--------------------|--------------------|------------------------|

--3--3--------------|--------------------|--5---5---5---5---5--5--|

--------------------|--3--3--------------|------------------------|

----------------------|----------------------|----------------------|

----------------------|----------------------|----------------------|

----------------------|--3----3----3----3----|----------------------|

--0----0----0----0----|----------------------|--3----3----3----3----|

----------------------|----------------------|----------------------|

----------------------|----------------------|----------------------|

--5----5----5----5----|----------------------|--3----3----3----3----|

----------------------|--0----0----0----0----|----------------------|

----------------------|----------------------|----------------------|

----------------------|----------------------|----------------------|

----------------------|--5----5----5----5----|--0----0----0----0----|

--3----3----3----3----|----------------------|----------------------|

----------------------|----------------------|----------------------|

----------------------|----------------------|----------------------|

--3----3----3----3----|----------------------|--5----5----5----5----|

----------------------|--3----3----3----3----|----------------------|

----------------------|----------------------|----------------------|

----------------------|----------------------|----------------------|

--0----0----0----0----|--3----3----3----3----|----------------------|

----------------------|----------------------|--3----3----3----3----|

----------------------|--------------------|--------------------|

----------------------|--------------------|--------------------|

--5----5----5----5----|--------------------|--3--3--------------|

----------------------|--0--0--------------|--------------------|

--------------------|------------------------|--------------------|

--------------------|------------------------|--------------------|

--------------------|--5---5---5---5---6--7--|--------------------|

--3--3--------------|------------------------|--0--0--------------|

--------------------|--------------------|-------------------|

--------------------|--------------------|-------------------|

--3--3--------------|--------------------|--0----------------|

--------------------|--3--3--------------|-------------------|

--------------------|--------------------|--------------------|

--------------------|--------------------|--------------------|

--0--0--------------|--3--3--------------|--------------------|

--------------------|--------------------|--3--3--------------|

------------------------|--------------------|--------------------|

------------------------|--------------------|--------------------|

------------------------|--0--0--------------|--3--3--------------|

--3---3---3---3---3--3--|--------------------|--------------------|

--------------------|--------------------------------|------------------------|

--------------------|--------------------------------|------------------------|

--------------------|--5----3----2-------------------|------------------------|

--3--3--------------|-----------------5----3----2----|--3----3--3--3----3--3--|

-----------------------|------------------------|-----------------------|

-----------------------|------------------------|------------------3----|

-----------------------|------------------------|--3----3--3--1---------|

--3----3--3--3----1----|--3----3--3--3----3--3--|-----------------------|

------------------------|-----------------------|------------------------|

------------------------|-----------------------|------------------------|

------------------------|-----------------------|------------------------|

--3----3--3--3----3--3--|--3----3--3--3----1----|--3----3--3--3----3--3--|

-----------------------|------------------------|-----------------------|

------------------3----|------------------------|-----------------------|

--3----3--3--1---------|--2----2--2--2----2--2--|--2----2--2--2----0----|

-----------------------|------------------------|-----------------------|

------------------------|------------------2----|------------------------|

------------------------|-------------0---------|------------------------|

--2----2--2--2----2--2--|--0----0--0------------|--2----2--2--2----2--2--|

------------------------|-----------------------|------------------------|

-----------------------|------------------------|------------------2----|

-----------------------|------------------------|-------------0---------|

--2----2--2--2----0----|--2----2--2--2----2--2--|--0----0--0------------|

-----------------------|------------------------|-----------------------|

-------------------|------------------|------------------|------------------||

-------------------|------------------|------------------|------------------||

--2----------------|------------------|------------------|------------------||

-------------------|------------------|------------------|------------------||

Taken from The BassMasta -- http://www.tabs-database.com

Get this song at:  amazon.com sheetmusicplus.com

Share your thoughts

0 Comments found