Nightwish

Nightwish - Crimson Tide bass tab

Tuning: Standard (E A D G)

Riff A

G|--------------------------------||---------------------------------------------------||

D|--------------------------------||------------------------------------------------3--||

A|-----------------------------x2-||---------------------------------------3--3-3-1----|| x2

E|---0-0-0~-----0-0--0~~----------||-3--3-3-3--3-3-3--3-3-1--3--3-3-3--3-3-------------||

Riff B

G|------------------------------------------------------2--------------||

D|---------------------------------------------------0-----------------||

A|---2--2-2-2--2-2-2--2-2-2--0--2--2-2-2--2-2-0--0-0-------------------|| x2

E|---------------------------------------------------------------------||

Main riff play x4 x2

G||-----------------------------------------------------||-----------------------------------||

D||0---------------------------------------------------0||0---------------------------------0||

A||0--------------3--3--3--3--------------5--5--5--5---0||0----------3-3-------5-5-5-5-5-5--0||

E||--0--0--0--0--------------3--3--3--3-----------------||----0-0--------3-3-----------------||

play x2

G||---------------------------------||

D||0-------------------------------0||

A||0--0-0---3-3-------5-5-5-5-5-5--0||

E||-------------3-3-----------------||

Main riff x4

E|----------------------------------------------------------------------------------||

D|----------------------------------------------------------------------------------||

A|--------3-3------5-5-5-5-6-7--------3-3-------0-----0-0-------3-3-----------------||

E|--0-0-------3-3----------------0-0-------3-3-------------1-1-------3-3-3-3-3-3----||

G|------------------------------------||

D|------------------------------------||

A|--0-0--3-3-------10-9-8-7-6-5-------||

E|-----------3-3----------------------||

G|-----------------------------------------------------------------------------------||

D|-------------------------------------------------5-7-------------------------------||

A|---7--7-7-7--7-7-7--7-7-7--5--7--7-7-7--7-7-7--0-------7--7-7-7--7-7-7--7-7-7-5----||

E|-----------------------------------------------------------------------------------||

G|---------------------------------------------------------------------------||

D|---------------------------7------------------------------------------------||

A|---7--7-7-7--7-7-7--7-7-5------------------------------------------------------------||

E|---------------------------------------------------------------------------||

Riff A x2

Riff B x2

Finish on

G|------------------||

D|------------------||

A|--2~~-------------||

E|------------------||

Get this song at:  amazon.com sheetmusicplus.com

Share your thoughts

0 Comments found