Nightwish

Nightwish - Creek Marys Blood guitar tab

intro (clean)

e:--3--1-3----1-4-3-4--4-3-4--6-6-8-8-3-3--3--1-3---1-4-3-4--3-1------8-------|

B:----------1--------------------------------------1-------------4-3----8-6-8-|

G:----------------------------------------------------------------------------|

D:----------------------------------------------------------------------------|

A:----------------------------------------------------------------------------|

D:----------------------------------------------------------------------------|

Distortion part

2.20 Chorus

e:--------------------------------------------------------------------------|

B:--------------------------------------------------------------------------|

G:---3--5---8--3------5---3--5-----3-----5-----3----------------------------|

D:---3--5---8--3---5--5---3--5--6--3--5--5--3--3---5------------------------|

A:---1--3---6--1---5--3---1--3--6--1--5--3--3--1---5------------------------|

D:-----------------5------------6-----5-----3------5------------------------|

3.31 solo

e:--/8-6--------------------------------------------------------------------|

B:-------6~--6-4-6-4-6-/8~--8-4-6~--9-11-8~---8-4-6~--6-4-6-4-6-/8~---------|

G:--------------------------------------------------------------------------|

D:--------------------------------------------------------------------------|

A:--------------------------------------------------------------------------|

D:--------------------------------------------------------------------------|

e:------------------------------------11-8---------8------------------------|

B:--6-8-9-8-6-4-6~--4-6-8-9-8-11-13~-------11-8-11---6~--3~-----------------|

G:--------------------------------------------------------------------------|

D:--------------------------------------------------------------------------|

A:--------------------------------------------------------------------------|

D:--------------------------------------------------------------------------|

4.42 Find good rythm-

e:--------------------------------------------------------------------------|

B:--------------------------------------------------------------------------|

G:------------6-----------6---------------------4-3-------------------------|

D:-1-1-1...-1-6--1-1-1...-6-6--1-1-1...-6-6-6-6-4-3-------------------------|

A:-1-1-1...-1-4--1-1-1...-4-6--1-1-1...-6-6-6-6-2-1-------------------------|

D:-1-1-1...-1----1-1-1...---6--1-1-1...-6-6-6-6-----------------------------|

4.57

e:--------------------------------------------------------------------------|

B:--------------------------------------------------------------------------|

G:--5--8--3--5---3-3------------5--8--3--5---3-3------------3-3-3------3-5--|

D:--5--8--3--5---3-3--5-6-3-5---5--8--3--5---3-3--5-6-3-5----3-3-3--5-6-3-5-|

A:--3--6--1--3---1-1--5-6-3-5---3--6--1--3---1-1--5-6-3-5----1-1-1--5-6-1-3-|

D:--------------------5-6-3-5---------------------5-6-3-5--------------5-6--|

5.28

e:--------------------------------------------------------------------------|

B:--------------------------------------------------------------------------|

G:--5-5-5-5...-----------------3-3-3-3-3-3-3-3-5-5-5-5-5-5-5-5--------------|

D:--5-5-5-5...-6-6-6-6-6-6-6-6-3-3-3-3-3-3-3-3-5-5-5-5-5-5-5-5--------------|

A:--3-3-3-3...-6-6-6-6-6-6-6-6-1-1-1-1-1-1-1-1-3-3-3-3-3-3-3-3--------------|

D:-------------6-6-6-6-6-6-6-6----------------------------------------------|

5.44 Chorus

e:--------------------------------------------------------------------------|

B:--------------------------------------------------------------------------|

G:---3--5---8--3------5---3--5-----3-----5-----3--3-------------------------|

D:---3--5---8--3---5--5---3--5--6--3--5--5--3--3--3--5----------------------|

A:---1--3---6--1---5--3---1--3--6--1--5--3--3--1--1--5----------------------|

D:-----------------5------------6-----5-----3--------5----------------------|

e:--------------------------------------------------------------------------|

B:--------------------------------------------------------------------------|

G:---5--7---10--5--2--7---5--7--3--5--2--7-----5--5-------------------------|

D:---5--7---10--5--2--7---5--7--3--5--2--7--5--5--5--0----------------------|

A:---3--5---8---3--0--5---3--5--1--3--0--5--5--3--3--0----------------------|

D:------------------------------------------5--------0----------------------|

Get this song at:  amazon.com sheetmusicplus.com

Share your thoughts

0 Comments found