Nightwish

Nightwish - Come Cover Me guitar tab

Intro:

E--------------------------------------------------------------|

B---10-10h11-11-10----13h15-10-10-8----8-10-8------------------|

G------------------12---------------10--------10-9-10-9--------|

D-------------------------------------------------------12~----|

A--------------------------------------------------------------|

E--------------------------------------------------------------| and then...

E--------------------------------------------------------------|

B---10-10h11-11-10----13h15-10-10-11-13-11-10-12---------------|

G------------------12----------------------------10-9-10-9-----|

D----------------------------------------------------------12~-|

A--------------------------------------------------------------|

E--------------------------------------------------------------|

I don't remember the verse......

Riff 1:

E-------------------------------------------------------------------|

B-5-0-0-7-0-8-0-0-5-0-0-7-0-8-0-0-5-0-0-7-0-8-0-10-0-8-0-7-0-8-0-0--|

G-------------------------------------------------------------------|

D-------------------------------------------------------------------|

A-------------------------------------------------------------------|

E-------------------------------------------------------------------| and then...

E--5-0-0-7-0-8-0-0-5-0-0-7-0-8-0-0-5-7-0-8-5~-|

B---------------------------------------------|

G---------------------------------------------|

D---------------------------------------------|

A---------------------------------------------|

E---------------------------------------------|

Chorus:

E-----------------------------------------------------|

B-----------------------------------------------------|

G-----------------------------------------------------|

D---7-----7-----5-----7-----3-----5-----7------7------|

A---7-----7-----5-----7-----3-----5-----7------7------|

E---5xxxx-5xxxx-3xxxx-5xxxx-1xxxx-3xxxx-5-xxxx-5xxxx--| (2 Times)

"Solo":

E-------------------------------------------------------------------|

B--------------6---8---8-10-11-10-8---------------------------------|

G--7-7h8-8-7-5---5---7--------------10-8-7----------7---------------|

D------------------------------------------10-8-7-8---8-7-5~-3-0~---|

A-------------------------------------------------------------------|

E-------------------------------------------------------------------|

After "Solo":

E--------------------------------------------------------------------|

B--------------------------------------------------------------------|

G---7----------------------10---7---------------------5--------------|

D---7-----7-8-8h7----------10---7-----7-8-8h7---------5--------------|

A---5-5-8---5-5-5--(2x)----8----5-5-8---5-5-5--(2x)---3--------------|

E--------------------------------------------------------------------|(2 times)

:DAdded by tabs-database.com and our distinguished partners

Get this song at:  amazon.com sheetmusicplus.com

Share your thoughts

0 Comments found