Nightwish

Nightwish - Come Cover Me bass tab

G||------------------|------------------|------------------|------------------|

D||------------------|------------------|------------------|------------------|

A||------------------|------------------|------------------|------------------|

E||------------------|------------------|------------------|------------------|

------------------------|------------------------|------------------------|

------------------------|------------------------|------------------------|

--5----5----5--5--5--5--|------------------------|--3----3----3--3--3--3--|

------------------------|--6----6----6--6--6--6--|------------------------|

------------------------|------------------------|------------------------|

------------------------|------------------------|------------------------|

--5----5----5--5--5--5--|--1----1----1--1--1--1--|--3----3----3--3--3--3--|

------------------------|------------------------|------------------------|

------------------------|------------------------|------------------------|

------------------------|------------------------|------------------------|

--5----5----5--5--5--5--|--5----5----5--5--5--5--|--5----5----5--5--5--5--|

------------------------|------------------------|------------------------|

------------------------|------------------------|------------------------|

------------------------|------------------------|------------------------|

------------------------|--3----3----3--3--3--3--|--5----5----5--5--5--5--|

--6----6----6--6--6--6--|------------------------|------------------------|

------------------------|------------------------|------------------------|

------------------------|------------------------|------------------------|

--1----1----1--1--1--1--|--3----3----3--3--3--3--|--5----5----5--5--5--5--|

------------------------|------------------------|------------------------|

------------------------|------------------------|------------------------|

------------------------|------------------------|------------------------|

--5----5----5--5--5--5--|--2--2----2--2--2----2--|--2--2----2--2--2----2--|

------------------------|------------------------|------------------------|

------------------------|------------------------|------------------------|

------------------------|------------------------|------------------------|

--2--2----2--2--2----2--|--2--2----2--2--2----2--|--5----5----5--5--5--5--|

------------------------|------------------------|------------------------|

------------------------|------------------------|------------------------|

------------------------|------------------------|------------------------|

------------------------|--2--2----2--2--2----2--|--2--2----2--2--2----2--|

--0----0----0--0--0--0--|------------------------|------------------------|

------------------------|------------------------|------------------------|

------------------------|------------------------|------------------------|

------------------------|------------------------|------------------------|

--0--0----0--0--0----0--|--0--0----0--0--0----0--|--0--0----0--0--0----0--|

------------------------|------------------------|------------------------|

------------------------|------------------------|------------------------|

------------------------|------------------------|------------------------|

--0--0----0--0--0----0--|--3----3----3--3--3--3--|--5----5----5--5--5--5--|

------------------------|-------------------------|-------------------|

------------------------|-------------------------|-------------------|

------------------------|-------------------------|--3----------------|

--0--0----0--0--0----0--|--0--0----0--0--0--0--0--|-------------------|

-------------------|------------------------|------------------------|

-------------------|------------------------|------------------------|

--5----------------|--7--7--7----7--7--7----|--7--7--7----7--7--7----|

-------------------|------------------------|------------------------|

-------------------|-------------------|-------------------|------------------|

-------------------|-------------------|-------------------|------------------|

-------------------|-------------------|-------------------|------------------|

--1----------------|--3----------------|--5----------------|------------------|

------------------------|------------------------|------------------------|

------------------------|------------------------|------------------------|

--5----5----5--5--5--5--|------------------------|--3----3----3--3--3--3--|

------------------------|--6----6----6--6--6--6--|------------------------|

------------------------|------------------------|------------------------|

------------------------|------------------------|------------------------|

--5----5----5--5--5--5--|--1----1----1--1--1--1--|--3----3----3--3--3--3--|

------------------------|------------------------|------------------------|

------------------------|------------------------|------------------------|

------------------------|------------------------|------------------------|

--5----5----5--5--5--5--|--5----5----5--5--5--5--|--5----5----5--5--5--5--|

------------------------|------------------------|------------------------|

------------------------|------------------------|------------------------|

------------------------|------------------------|------------------------|

------------------------|--3----3----3--3--3--3--|--5----5----5--5--5--5--|

--6----6----6--6--6--6--|------------------------|------------------------|

------------------------|------------------------|------------------------|

------------------------|------------------------|------------------------|

--1----1----1--1--1--1--|--3----3----3--3--3--3--|--5----5----5--5--5--5--|

------------------------|------------------------|------------------------|

------------------------|------------------------|------------------------|

------------------------|------------------------|------------------------|

--5----5----5--5--5--5--|--5----5----5--5--5--3--|--5----5----5--5--5--3--|

------------------------|------------------------|------------------------|

------------------------|------------------------|------------------------|

------------------------|------------------------|------------------------|

--5----5----5--5--5--3--|--5----5----5--5--5--5--|--1----1----1--1--1--1--|

------------------------|------------------------|------------------------|

------------------------|------------------------|------------------------|

------------------------|------------------------|------------------------|

------------------------|------------------------|------------------------|

--1----1----1--1--1--1--|--3----3----3--3--3--3--|--3----3----3--3--3--3--|

------------------------|------------------------|------------------------|

------------------------|------------------------|------------------------|

--5--5--5--5--5----5----|--5--5--5--5--5----5----|--5--5----5--8--5----5--|

------------------------|------------------------|------------------------|

-------------------------|------------------------|------------------------|

-------------------------|------------------------|------------------------|

--8--5----5--8--5--5--5--|--5--5--5--5--5----5----|--5--5--5--5--5----5----|

-------------------------|------------------------|------------------------|

-------------------|-------------------|------------------------|

-------------------|-------------------|------------------------|

--3----------------|-------------------|--5--5--5--5--5----5----|

-------------------|--3----------------|------------------------|

------------------------|------------------------|-------------------------|

------------------------|------------------------|-------------------------|

--5--5--5--5--5----5----|--5--5----5--8--5----5--|--8--5----5--8--5--5--5--|

------------------------|------------------------|-------------------------|

------------------------|------------------------|-------------------|

------------------------|------------------------|-------------------|

--5--5--5--5--5----5----|--5--5--5--5--5----5----|--3----------------|

------------------------|------------------------|-------------------|

-------------------|----------|------------------------|

-------------------|----------|------------------------|

-------------------|----------|--2--2----2--2--2----2--|

--3----------------|----------|------------------------|

------------------------|------------------------|------------------------|

------------------------|------------------------|------------------------|

--2--2----2--2--2----2--|--2--2----2--2--2----2--|--2--2----2--2--2----2--|

------------------------|------------------------|------------------------|

------------------------|------------------------|------------------------|

------------------------|------------------------|------------------------|

--5----5----5--5--5--5--|------------------------|--2--2----2--2--2----2--|

------------------------|--0----0----0--0--0--0--|------------------------|

------------------------|------------------------|------------------------|

------------------------|------------------------|------------------------|

--2--2----2--2--2----2--|------------------------|------------------------|

------------------------|--0--0----0--0--0----0--|--0--0----0--0--0----0--|

------------------------|------------------------|------------------------|

------------------------|------------------------|------------------------|

------------------------|------------------------|------------------------|

--0--0----0--0--0----0--|--0--0----0--0--0----0--|--3----3----3--3--3--3--|

------------------------|------------------------|------------------------|

------------------------|------------------------|------------------------|

------------------------|------------------------|------------------------|

--5----5----5--5--5--5--|--0--0----0--0--0----0--|--0--0----0--0--0----0--|

-------------------|-------------------|------------------------|

-------------------|-------------------|------------------------|

--3----------------|--5----------------|--7--7--7----7--7--7----|

-------------------|-------------------|------------------------|

------------------------|-------------------|-------------------|

------------------------|-------------------|-------------------|

--7--7--7----7--7--7----|-------------------|-------------------|

------------------------|--1----------------|--3----------------|

-------------------|------------------|------------------|------------------|

-------------------|------------------|------------------|------------------|

-------------------|------------------|------------------|------------------|

--5----------------|------------------|------------------|------------------|

------------------|------------------|-------------------|-------------------|

------------------|------------------|-------------------|-------------------|

------------------|------------------|--1----------------|--3----------------|

------------------|------------------|-------------------|-------------------|

--------------------------|--------------------------|------------------------|

--------------------------|--------------------------|--5----5----5--5--5--5--|

--5--5--5--5--5--5--5--5--|--5--5--5--5--5--5--5--5--|------------------------|

--------------------------|--------------------------|------------------------|

------------------------|------------------------|------------------------|

------------------------|--3----3----3--3--3--3--|--5----5----5--5--5--5--|

--6----6----6--6--6--6--|------------------------|------------------------|

------------------------|------------------------|------------------------|

------------------------|------------------------|------------------------|

--1----1----1--1--1--1--|--3----3----3--3--3--3--|--5----5----5--5--5--5--|

------------------------|------------------------|------------------------|

------------------------|------------------------|------------------------|

------------------------|------------------------|------------------------|

--5----5----5--5--5--5--|--5----5----5--5--5--5--|------------------------|

------------------------|------------------------|--6----6----6--6--6--6--|

------------------------|------------------------|------------------------|

------------------------|------------------------|------------------------|

--3----3----3--3--3--3--|--5----5----5--5--5--5--|--1----1----1--1--1--1--|

------------------------|------------------------|------------------------|

------------------------|------------------------|------------------------|

------------------------|-------------------|------------------|

--3----3----3--3--3--3--|-------------------|------------------|

------------------------|-------------------|------------------|

------------------------|--3----------------|------------------|

Taken from The BassMasta -- http://www.tabs-database.com

Get this song at:  amazon.com sheetmusicplus.com

Share your thoughts

0 Comments found