Nightwish

Nightwish - Beauty And The Beast guitar tab

I didn't come up with this, my friend did but he ent got the internet so he asked me to put

it on. So full credit

goes to Robert Verender, and of course Nighwish for making this totaly wicked song!

Please rate this, thanks!

I think it's about right, if you find problems then you very welcome to do corections.

E|--------------------------------------------------------||

B|--------------------------------------------------------||

G|-5-7-----5-7----5-7----5-7--------8-5-------8-7---------||

D|-5-7-2---5-7-2--5-7-2--5-7-5------8-5-5-----8-7-5-------||

A|-3-5-2---3-5-2--3-5-2--3-5-5------6-3-5-----6-3-5-------||

E|-----0-------0------0------33.....----33....----3-------||

E|--------------------------------------------------------||

B|--------------------------------------------------------||

G|-------------------------------------------------5-7----||

D|-------------------------------------------------5-7-5--||

A|-------------------------------------------------3-5-5--||

E|-7-5-3-0-2-3-5---7-5---8-7-5-3-2-0-7-5-3-0-2-3-5-----3--||

E|---------------------------------------------------------------------||

B|---------------------------------------------------------------------||

G|-------------Start getting faster and faster, then slow down---------||

D|-5-7-8-10-8-10-8-10-8-10-8-10-8-10-8-10-8-10-8-10-8-10-8-10-8-10-----||

A|-3-5-6--8-6--8-6--8-6--8-6--8-6--8-6--8-6--8-6--8-6--8-6--8-6--8-8---||

E|-----------------------------------------------------------------6---||

E|--------------------------------------------------------||

B|--------------------------------------------------------||

G|---------7/5------------7-5-----------------------------||

D|-7-3-5-5-7/5------7-3-5-7-5-----------------------------||

A|-7-3-5-5-5/3------7-3-5-5-3-----------------------------||

E|-5-1-3-3----------5-1-3---------------------------------||

E|--------------------------------------------------------||

B|--------------------------------------------------------||

G|-------------------------------------7------------------||

D|-7-7-7---------3-3-3-------5-5-5-5-5-7------------------||

A|-7-7-7-5-3-2-0-3-3-3-5-3-0-5-5-5-5-5-5-5-7-7-7-5-7-7-7--||

E|-5-5-5---------1-1-1-------3-3-3-3-3--------------------||

E|--------------------------------------------------------||

B|--------------------------------------------------------||

G|-------------------------------------7------5-----------||

D|-7-7-7---------3-3-3-------5-5-5-5-5-7-Ring-5Ring-------||

A|-7-7-7-5-3-2-0-3-3-3-5-3-0-5-5-5-5-5-5------3-----------||

E|-5-5-5---------1-1-1-------3-3-3-3-3--------------------||

E|--------------------------------------------------------||

B|--------------------------------------------------------||

G|----7-----5---------------------------------------------||

D|-7--7--3--5--5-5-5-5------------------------------------||

A|-7--5--3--3--5-5-5-5------------------------------------||

E|-5-----1-----3-3-3-3------------------------------------||

E|--------------------------------------------------------||

B|--------------------------------------------------------||

G|-------------------------------------7------------------||

D|-7-7-7---------3-3-3-------5-5-5-5-5-7------------------||

A|-7-7-7-5-3-2-0-3-3-3-5-3-0-5-5-5-5-5-5-5-7-7-7-5-7-7-7--||

E|-5-5-5---------1-1-1-------3-3-3-3-3--------------------||

E|--------------------------------------------------------||

B|--------------------------------------------------------||

G|-------------------------------------7------5-----------||

D|-7-7-7---------3-3-3-------5-5-5-5-5-7-Ring-5Ring-------||

A|-7-7-7-5-3-2-0-3-3-3-5-3-0-5-5-5-5-5-5------3-----------||

E|-5-5-5---------1-1-1-------3-3-3-3-3--------------------||

E|--------------------------------------------------------||

B|--------------------------------------------------------||

G|----7-----5---------------------------------------------||

D|-7--7--3--5--5-5-5-5------------------------------------||

A|-7--5--3--3--5-5-5-5------------------------------------||

E|-5-----1-----3-3-3-3------------------------------------||

About midway through the guys little growl thing, the guitar comes in.

E|--------------------------------------------------------||

B|--------------------------------------------------------||

G|--------------------------------------------------------||

D|-8-10-8-10-8-10-8-10------------------------------------||

A|-6--8-6--8-6--8-6-8--8----------------------------------||

E|---------------------6----------------------------------||

SOLO

E|--------------------------------------------------------||

B|----------------------------11--13--16-14-14-13-14-16---||

G|-13-11-10-11-10-11-13-11-10---10--10--------------------||

D|--------------------------------------------------------||

A|--------------------------------------------------------||

E|--------------------------------------------------------||

E|-14~~~13------------------------------------------------||

B|--------16-14--------------------11--13--16-14-14-13-14-||

G|-------------11-11-11h13p11-10-10--10--10---------------||

D|--------------------------------------------------------||

A|--------------------------------------------------------||

E|--------------------------------------------------------||

E|----14~~~13---------------------------------------------||

B|-16--------16-14-13~~-14-13~~~~-------------------------||

G|--------------------------------------------------------||

D|--------------------------------------------------------||

A|--------------------------------------------------------||

E|--------------------------------------------------------||

E|--------------------------------------------------------||

B|--------------------------------------------------------||

G|-----3-------5-3-5---------3-------5-3-5----------------||

D|-5-3-3-5-5-3-5-3-5-5---5-3-3-5-5-3-5-3-5-5-4-2----------||

A|-5-3-1-5-5-3-3-1/3-5---5-3-1-5-5-3-3-1/3-5-4-2----------||

E|-3-1---3-3-1-------3---3-1---3-3-1-------3-2-0----------||

E|--------------------------------------------------------||

B|--------------------------------------------------------||

G|--------5-2--------5-2-------5-2------------------------||

D|-2------5-2-2------5-2-2-----5-2-2----------------------||

A|-2------3-0-2------3-0-2-----3-0-2----------------------||

E|-00.....----00....-----00....----0----------------------||

E|--------------------------------------------------------||

B|--------------------------------------------------------||

G|--------------------------------------------------------||

D|---3------3-2---3---------------------2-----------------||

A|--------------------------------------2-----------------||

E|-1---1--1-----1---1--Slide from 12 to 0-----------------||

E|--------------------------------------------------------------------||

B|--------------------------------------------------------------------||

G|--------5-2--------5-2-----------------------------5-2------5-2-----||

D|-2------5-2-2------5-2-2---------------------------5-2-2----5-2-----||

A|-2------3-0-2------3-0-2---------------------------3-0-2----3-0-----||

E|-00.....----00....-----0Slide from 1 to 12 and back----00...---33..-||

E|--------------------------------------------------------||

B|--------------------------------------------------------||

G|------3-5-------------------------------5-3-------------||

D|3-5---3-55------------------------------5-3-5-----------||

A|3-5---1/35------------------------------3-1-5-----------||

E|1-33..---33..-----On the Last Time play ----3-----------||

Get this song at:  amazon.com sheetmusicplus.com

Share your thoughts

0 Comments found