Nightwish

Nightwish - Beauty And The Beast bass tab

Tuning: Standard (E A D G)

Great song by nightwish=)

G|-------------------||----------------------------------------||

D|-------------------||----------------------------------------||

A|---3--5--7----3--5-||----2-0---------0-2--2-0-----320-20-----||

E|---------0~~-------||--0------3-2-2-3----------3-2-------3---||

G|--------------------------||

D|--------------------------||

A|--2-0---------0-2---3--5--||

E|------3-2-2-3-------------||

G|------------------------------------||

D|------------------------------------||

A|--2-0---------0-2--2-0-----320-20---||

E|------3-2-2-3----------3-2-------3--||

G|--------------------------||

D|--------------------------||

A|--2-0---------0-2---3--5--||

E|------3-2-2-3-------------||

G|-----------------------------------------||

D|0---------------------------------------0||

A|0----------------------------------6--3-0||

E|---33333333333333333333333333333---------||

G|----------------------------------------||

D|----------------------------------------||

A|--2-0---------0-2--2-0-----3-2-0-2-0----||

E|------3-2-2-3----------3-2-----------3--||

G|--------------------------||

D|--------------------------||

A|--2-0---------0-2---3--5--||

E|------3-2-2-3-------------||

G|-----------------------------------------||

D|-----------------------------------------||

A|--2-0---------0-2--2-0-----3-2-0--2-0----||

E|------3-2-2-3----------3-2------------3--||

G|--------------------------||

D|--------------------------||

A|--2-0---------0-2---3--5--||

E|------3-2-2-3-------------||

Play this riff 9x while you gradually increase the tempo

G|--------||

D|--------||

A|-6---8--||

E|--------||

Then play the riff three times slowing it down again

End on

||------||

||------||

||------||

||--6~~-||

G|-----------------------------------------||

D|---------------------/7------------------||

A|---------------5---------------3-3-------||

E|--5---1---3-3-----0------1--3------3-----||

Singing starts(Male vocals)

G|----------------------------------------------------||

D|-------------------0--------------------------------||

A|--------5323---------3-2----------5-5-5p7p8-7-5p7---||

E|--5-5-5------1-1-1-------3-3-3-3--------------------||

G|--------------------------------------------||

D|-------------------0------------------------||

A|--------5323---------3-2----------3-3-2-----||

E|--5-5-5------1-1-1-------3-3-3-3------------||

(Female vocals)

G|-----------------------------------||

D|-----------------------------------||

A|-------5---------------------------|| X2

E|---5-------1---5---3-3-3-3---------||

Male vocals

Female vocals

x?

G|------||------------||

D|------||------------||

A|-6--8-||------------||

E|------||----6~~-----||

x4

G|---------||-----------------------------------------------------------||

D|---------||-----------------------------------------------------------||

A|---------||-/6---4---1-----4-----------------0-1--1-0-----------0-----||

E|---------||-------------2-----4--3--3---1--1----------3--1--1-3---1---||

G|-----------------------------------------------------------------||

D|-----------------------------------------------------------------||

A|-------------0--3--3--1--3-------------0--1--0-----------0-------||

E|--3--3--1--1----------------3--3--1--1---------3--1--1-3---1-----||

G|--------------------------------------||

D|--------------------------------------||

A|-------------0--3--3--1--3------------||

E|--3--3--1--1----------------3~~---2---||

[8 measures]

G|--------------||

D|--------------||

A|--------------||

E|--0~~~~~~~~~--||

x4

G|---------------------------------------------------||

D|-------------------------------------------10--7---||

A|--7--7-7-7--7-7-7--7-7-7--7-7-7--7-7-7--77---------||

E|---------------------------------------------------||

G|--------------------------------------------------------||

D|--------------------------------------------------------||

A|--------------------------------------------------------||

E|--1--1-1-1--1-1-1--1-1-1--1-1-1--1-1-1--1-1-1--1-1-1----||

G|--------------------------------------------------------||

D|--------------------------------------------------------||

A|--------------------------------------------------------||

E|--0~~~~~~~~~~~~~~~~~~~~~~~~~~~~~~~~~~-------------------||

G|--------------------------------------------------------||

D|--------------------------------------------------------||

A|--------------------------------------------------------||

E|--1--1-1-1--1-1-1--1-1-1--1-1-1--1-1-1--1-1-1--1-1-1----||

G|--------------------------------------------------------||

D|--------------------------------------------------------||

A|--------------------------------------------------------||

E|--0~~~~~~~~~~~~~~~~~~~~~~~~~~~~~~~~~~-------------------||

G|---------------------------------------------------||

D|-------------------------------------------10--7---||

A|--7--7-7-7--7-7-7--7-7-7--7-7-7--7-7-7--77---------||

E|---------------------------------------------------||

G|----------------------------------------------------------||

D|----------------------------------------------------------||

A|--7--7-7-7--7-7-7--7-7-7--7-7-7--7-7-7--7-7-7--7-7-7--7-7-||

E|----------------------------------------------------------||

G|---------------------------------------------------||

D|-------------------------------------------10--7---||

A|--7--7-7-7--7-7-7--7-7-7--7-7-7--7-7-7--77---------||

E|---------------------------------------------------||

G|---------------------------------------------------||

D|-------------------------------------------5--7----||

A|--7--7-7-7--7-7-7--7-7-7--7-7-7--7-7-7--77---------||

E|---------------------------------------------------||

G|------------------------------------------------------------||

D|------------------------------------------------------------||

A|------------------------------------------------------------||

E|--3--3-3-3--3-3-3--3-3-3--3-3-3--3-3-3--3-3-1--1-1-1--1-1---||

G|--------------------------------------------------------||

D|--------------------------------------------------------||

A|---------------------------------1--1-1-1--1-1-3--3-3-3-||

E|--3--3-3-3--3-3-3--3-3-3--3-3-3-------------------------||

G|------------------------------------------------------------||

D|------------------------------------------------------------||

A|------------------------------------------------------------||

E|--3--3-3-3--3-3-3--3-3-3--3-3-3--3-3-3--3-3-1--1-1-1--1-1---||

G|--------------------------------------------------------||

D|--------------------------------------------------------||

A|---------------------------------1--1-1-1--1-1-3--3-3-3-||

E|--3--3-3-3--3-3-3--3-3-3--3-3-3-------------------------||

G|------------------------------------------------------------||

D|------------------------------------------------------------||

A|------------------------------------------------------------||

E|--3--3-3-3--3-3-3--3-3-3--3-3-3--3-3-3--3-3-1--1-1-1--1-1---||

G|--------------------------------------------------------||

D|--------------------------------------------------------||

A|---------------------------------1--1-1-1--1-1-3--3-3-3-||

E|--3--3-3-3--3-3-3--3-3-3--3-3-3-------------------------||

G|------------------------------------------------------------||

D|------------------------------------------------------------||

A|------------------------------------------------------------||

E|--3--3-3-3--3-3-3--3-3-3--3-3-3--3-3-3--3-3-1--1-1-1--1-1---||

G|--------------------------------------------------------||

D|--------------------------------------------------------||

A|---------------------------------1--1-1-1--1-1-3--3-3-3-||

E|--3--3-3-3--3-3-3--3-3-3--3-3-3-------------------------||

G|-------||

D|-------||

A|-------||

E|--3~~--||

Get this song at:  amazon.com sheetmusicplus.com

Share your thoughts

0 Comments found