Nightwish

Nightwish - Beauty & The Beast bass tab

G||------------------|------------------|------------------|--------------|

D||------------------|------------------|------------------|--------------|

A||------------------|------------------|------------------|--------------|

E||------------------|------------------|------------------|--------------|

----------------------|----------------------|----------------------|

----------------------|----------------------|----------------------|

----------------------|----------------------|----------------------|

--0----0----0----0----|--0----0----0----0----|--0----0----0----0----|

---------------|----------------------|----------------------|

---------------|----------------------|----------------------|

---------------|----------------------|----------------------|

--0------------|--0----0----0----0----|--0----0----0----0----|

----------------------|---------------|----------------------|

----------------------|---------------|----------------------|

----------------------|---------------|----------------------|

--0----0----0----0----|--0------------|--0----0----0----0----|

----------------------|----------------------|---------------|

----------------------|----------------------|---------------|

----------------------|----------------------|---------------|

--0----0----0----0----|--0----0----0----0----|--0------------|

----------------------------------|----------------------------------|

----------------------------------|----------------------------------|

----------------------------------|----------------------------------|

--3-3-3-3-3-3-3-3-3-3-3-3-3-3-3-3-|--3-3-3-3-3-3-3-3-3-3-3-3-3-3-3-3-|

----------------------------------|--------------------------|

----------------------------------|----------1-1-1-1---------|

----------------------------------|------------------3-3-3-3-|

--3-3-3-3-3-3-3-3-3-3-3-3-3-3-3-3-|--3-3-3-3-----------------|

----------------------------------|----------------------------------|

----------------------------------|----------------------------------|

----------------------------------|----------------------------------|

--3-3-3-3-3-3-3-3-3-3-3-3-3-3-3-3-|--3-3-3-3-3-3-3-3-3-3-3-3-3-3-3-3-|

----------------------------------|--------------------------|

----------------------------------|----------1-1-1-1---------|

----------------------------------|------------------3-3-3-3-|

--3-3-3-3-3-3-3-3-3-3-3-3-3-3-3-3-|--3-3-3-3-----------------|

----------------------|----------------------|----------------------|

----------------------|----------------------|----------------------|

----------------------|----------------------|----------------------|

--0----0----0----0----|--0----0----0----0----|--0----0----0----0----|

----------------|----------------------|----------------------|

----------------|----------------------|----------------------|

------3----5----|----------------------|----------------------|

----------------|--0----0----0----0----|--0----0----0----0----|

----------------------|----------------|----------------------|

----------------------|----------------|--1----3----1----3----|

----------------------|------3----5----|----------------------|

--0----0----0----0----|----------------|----------------------|

----------------------|----------------------|----------------------|

--1----3----1----3----|--1----3----1----3----|--1----3----1----3----|

----------------------|----------------------|----------------------|

----------------------|----------------------|----------------------|

----------------------|----------------------|----------------------|

--1----3----1----3----|--1----3----1----3----|--1----3----1----3----|

----------------------|----------------------|----------------------|

----------------------|----------------------|----------------------|

-------------------|-------------------|-------------------|

-------------------|-------------------|-------------------|

--1----------------|--0----------------|-------------------|

-------------------|-------------------|--1----------------|

--------------------|--------------------|----------------------|

--------------------|--0--------2--------|----------------------|

--------------------|--------------------|--0----0----0----0----|

--3--3--------------|--------------------|----------------------|

----------------------|----------------------|--------------------|

----------------------|----------------------|--------------------|

----------------------|----------------------|--3-----------------|

--1----1----1----1----|--3----3----3----3----|-----------3--------|

----------------------|--------------------------|----------------------|

----------------------|-----------------0--------|----------------------|

--0----0----0----0----|--------------------3--2--|----------------------|

----------------------|--1----1----1-------------|--3----3----3----3----|

----------------------|----------------------|--------------------------|

--0----0--------------|----------------------|-----------------0--------|

----------------------|--0----0----0----0----|--------------------3--2--|

------------0----0----|----------------------|--1----1----1-------------|

----------------------|----------------------|--------------------------|

----------------------|----------------------|--------------------------|

----------------------|--3----3--------------|--0--0--0--0--0--0--0--0--|

--3----3----3----3----|------------3----3----|--------------------------|

--------------------------|--------------------------|

--0--0--0--0--0--0--0--0--|--------------------------|

--------------------------|--------------------------|

--------------------------|--1--1--1--1--1--1--1--1--|

---------------------------|--------------------------|

---------------------------|--------------------------|

--0--0--0--0------------0--|--0--0--0--0--0--0--0--0--|

--------------3-3--3-3-----|--------------------------|

--------------------------|--------------------------|

--0--0--0--0--0--0--0--0--|--------------------------|

--------------------------|--------------------------|

--------------------------|--1--1--1--1--1--1--1--1--|

---------------------------|----------------------|--------------------------|

---------------------------|----------------------|-----------------0--------|

--0--0--0--0------------0--|--0----0----0----0----|--------------------3--2--|

--------------3-3--3-3-----|----------------------|--1----1----1-------------|

----------------------|----------------------|----------------------|

----------------------|--0----0--------------|----------------------|

----------------------|----------------------|--0----0----0----0----|

--3----3----3----3----|------------0----0----|----------------------|

--------------------------|----------------------|----------------------|

-----------------0--------|----------------------|----------------------|

--------------------3--2--|----------------------|--3----3--------------|

--1----1----1-------------|--3----3----3----3----|------------3----3----|

--------------------------|--------------------------|

--------------------------|--0--0--0--0--0--0--0--0--|

--0--0--0--0--0--0--0--0--|--------------------------|

--------------------------|--------------------------|

--------------------------|---------------------------|

--------------------------|---------------------------|

--------------------------|--0--0--0--0------------0--|

--1--1--1--1--1--1--1--1--|--------------3-3--3-3-----|

--------------------------|--------------------------|

--------------------------|--0--0--0--0--0--0--0--0--|

--0--0--0--0--0--0--0--0--|--------------------------|

--------------------------|--------------------------|

--------------------------|---------------------------|------------------|

--------------------------|---------------------------|------------------|

--------------------------|--0--0--0--0------------0--|------------------|

--1--1--1--1--1--1--1--1--|--------------3-3--3-3-----|------------------|

------------------|------------------|------------------|--------------------|

------------------|------------------|------------------|--1--------3--------|

------------------|------------------|------------------|--------------------|

------------------|------------------|------------------|--------------------|

--------------------|--------------------|--------------------|

--1--------3--------|--1--------3--------|--1--------3--------|

--------------------|--------------------|--------------------|

--------------------|--------------------|--------------------|

-------------------|------------------|------------------|------------------|

-------------------|------------------|------------------|------------------|

--1----------------|------------------|------------------|------------------|

-------------------|------------------|------------------|------------------|

------------------|------------------|------------------|------------------|

------------------|------------------|------------------|------------------|

------------------|------------------|------------------|------------------|

------------------|------------------|------------------|------------------|

------------------|------------------|------------------|------------------|

------------------|------------------|------------------|------------------|

------------------|------------------|------------------|------------------|

------------------|------------------|------------------|------------------|

------------------|------------------|------------------|-------------------|

------------------|------------------|------------------|-------------------|

------------------|------------------|------------------|-------------------|

------------------|------------------|------------------|--2----------------|

-------------------|-------------------|--------------------|

-------------------|-------------------|--------------------|

--4----------------|-------------------|--------------------|

-------------------|--4----------------|--3--------3--------|

---------------------|---------------------|-----------------------|

---------------------|---------------------|-----------------------|

----------------0----|--1--------0---------|-----------------0-----|

--1--------1---------|----------------3----|--1--------1--3-----1--|

--------------------|---------------------|--------------------|

--------------------|---------------------|--------------------|

--------------------|----------------0----|--3--------3--------|

--3--------3--------|--1--------1---------|--------------------|

--------------------|--------------------|---------------------|

--------------------|--------------------|---------------------|

--1--------3--------|--------------------|----------------0----|

--------------------|--3--------3--------|--1--------1---------|

---------------------|-----------------------|--------------------|

---------------------|-----------------------|--------------------|

--1--------0---------|-----------------0-----|--------------------|

----------------3----|--1--------1--3-----1--|--3--------3--------|

---------------------|--------------------|--------------------|

---------------------|--------------------|--------------------|

----------------0----|--3--------3--------|--1--------3--------|

--1--------1---------|--------------------|--------------------|

-------------------|------------------|-----------|----------------------|

-------------------|------------------|-----------|----------------------|

-------------------|------------------|-----------|----------------------|

--3----------------|------------------|--2--------|--0----0----0----0----|

----------------------|----------------------|----------------------|

----------------------|----------------------|----------------------|

----------------------|----------------------|----------------------|

--0----0----0----0----|--0----0----0----0----|--0----0----0----0----|

----------------------|----------------------|----------------------|

----------------------|----------------------|----------------------|

----------------------|----------------------|----------------------|

--0----0----0----0----|--0----0----0----0----|--0----0----0----0----|

----------------------|----------------------|----------------------|

----------------------|----------------------|----------------------|

----------------------|------------3----0----|----------------------|

--0----0----0----0----|--0----0--------------|--0----0----0----0----|

----------------------|----------------------|----------------------|

----------------------|----------------------|----------------------|

------------3----0----|----------------------|------------3----0----|

--0----0--------------|--0----0----0----0----|--0----0--------------|

----------------------|----------------------|----------------------|

----------------------|----------------------|----------------------|

----------------------|------------3----0----|----------------------|

--0----0----0----0----|--0----0--------------|--1----1----1----1----|

----------------------|----------------------|----------------------|

----------------------|----------------------|----------------------|

----------------------|----------------------|----------------------|

--1----1----1----1----|--0----0----0----0----|--0----0----0----0----|

----------------------|----------------------|----------------------|

----------------------|----------------------|----------------------|

----------------------|----------------------|----------------------|

--1----1----1----1----|--1----1----1----1----|--0----0----0----0----|

----------------------|----------------------|----------------------|

----------------------|----------------------|----------------------|

----------------------|----------------------|------------3----0----|

--0----0----0----0----|--0----0----0----0----|--0----0--------------|

----------------------|----------------------|----------------------|

----------------------|----------------------|----------------------|

----------------------|------------3----0----|----------------------|

--0----0----0----0----|--0----0--------------|--0----0----0----0----|

----------------------|----------------------|----------------------|

----------------------|----------------------|----------------------|

------------3----0----|----------------------|------------3----0----|

--0----0--------------|--0----0----0----0----|--0----0--------------|

----------------------|----------------------|----------------------|

----------------------|----------------------|----------------------|

----------------------|----------------------|----------------------|

--3----3----3----3----|--3----3----1----1----|--3----3----3----3----|

----------------------|----------------------|----------------------|

----------------------|----------------------|----------------------|

--1----1----3----3----|----------------------|----------------------|

----------------------|--3----3----3----3----|--3----3----1----1----|

----------------------|----------------------|----------------------|

----------------------|----------------------|----------------------|

----------------------|--1----1----3----3----|----------------------|

--3----3----3----3----|----------------------|--3----3----3----3----|

----------------------|----------------------|----------------------|

----------------------|----------------------|----------------------|

----------------------|----------------------|--1----1----3----3----|

--3----3----1----1----|--3----3----3----3----|----------------------|

----------------------|----------------------|----------------------|

----------------------|----------------------|----------------------|

----------------------|----------------------|----------------------|

--3----3----3----3----|--3----3----1----1----|--3----3----3----3----|

----------------------|-------------------|------------------|

----------------------|-------------------|------------------|

--1----1----3----3----|-------------------|------------------|

----------------------|--3----------------|------------------|

------------------||

------------------||

------------------||

------------------||

Taken from The BassMasta -- http://www.tabs-database.com

Get this song at:  amazon.com sheetmusicplus.com

Share your thoughts

0 Comments found